» » »

Zero 7, I Have Seen Bass tabs (ver.1)

Artists:  A B C D E F G H I J K L M N O P Q R S T U V W X Y Z # 

I Have Seen Bass tabs (ver.1)

Zero 7 Tabs
 Rating:
4/5 (4 votes)
I Have Seen lessons Tabs too difficult? Try these video lessons and learn fast
1
                
Intro			   x2				    x8
G|-------------------------||---------6-8-8--6-8-10--6-8----||----|
D|------------------------*||*------8----------------------*||----|
A|--6-6-4-6----4-6-6-4-6--*||*--6--------------------------*||----|
E|-------------------------||-------------------------------||----|


0:37 Verse 						    x7
G|--------6-8-8--6-8-10--6-8---------------------------------||----|
D|------8--------------------6----4-6--4-4-----4------------*||----|
A|--6---------------------------6------------6---6--4-------*||----|
E|-----------------------------------------------------------||----|

G|---------6-8-8--6-8-10--6-8-------6-8-8--6---6-8----|
D|-------8------------------------8----------8--------|
A|---6------------------------6-----------------------|
E|----------------------------------------------------|


1:26 Chorus 			   |(not sure about this bit.......)|
G||----------9---------------------------------------------------------||
D||*-------9-----9-----9----------------------------------------------*||
A||*--7-7---------7-7-----7---8-8-----8-8---6-8---8-8-----8-8---6--8--*||
E||---------------------------------8-----8-------------8-----8--------||

G|------------12-------------------------------5-----------------|
D|---------12-----12------12------12---------5-----22222---------|
A|--10-10----------10-10-----10--10-10--3-3----------------1-----|
E|---------------------------------------------------------------|

2:06 Verse

2:54 Chorus

3:33 Play 7 or 8 times until fade:
				  x3
G||---------6-8-8--6-8-10--6-8----||--------8-8--6-8-10--6-8-------||
D||*------8----------------------*||------8-----------------------*||
A||*--6--------------------------*||--6-6-------------------------*||
E||-------------------------------||-------------------------------||

~~~~~~~~~~~~~~~~~~~~~~~~~~~~~~~~~~~~~~~~~~~~~~~~~~~~~~~~~~
Original Tab:


Really cool bass line.
This isn't exact but fairly accurate.
Listen to CD for timing or check sample on cdnow site


G|---------88--6--8--10-----------|
D|------5-------------------------|
A|-6---6------------------4--6----|
E|----------------------6---------|

G|-------------6--8--10-----------|
D|-6---4-6-4----------------------|
A|---6--------------------4--6----|
E|----------------------6---------|
            
Submit corrections

comments powered by Disqus
↑ Back to top | Zero 7 Bass for I Have Seen. Lyrics for acoustic guitar and electric guitar. 1 Tablatures and chords are parodies/interpretations of the original songs. You may use it for private study, scholarship, research or language learning purposes only