» » »

Zero 7, Left Behind Tabs (ver.1)

Artists:  A B C D E F G H I J K L M N O P Q R S T U V W X Y Z # 

Left Behind Tabs (ver.1)

Zero 7 Tabs
 Rating:
4/5 (4 votes)
Left Behind lessons Tabs too difficult? Try these video lessons and learn fast
1
                
Tuning:Eb,Ab,Db,Ab,Bb,eb
Live tuning: E,A,D,A,B,e

Questions or comments email above. rate please. Enjoy!

Intro
eb|-0---------0-----0---------------0---------0-----0-----------------|
Bb|-------------------------------------------------------------------|
Ab|---------------------------2---------------------------------2-----|
Db|-------6\--------------4/--------------6\--------------4/----------|
Ab|-------------------------------------------------------------------|
Eb|-0---0---0---0---0---0---0---0---0---0---0---0---0---0---0---0-----|

Verse          Cleaning up the things she left behind...
eb|-0---------0-----0-----------------|
Bb|-----------------------------------|
Ab|---------------------------2-------|(4x)
Db|-------6\--------------4/----------|
Ab|-----------------------------------|
Eb|-0---0---0---0---0---0---0---0-----|

 Are you on to find some peace of mind...
eb|-0---------------0---------------0---------------0-----------------|
Bb|-------------------------------------------------------------------|
Ab|-----------2---------------2---------------2---------------2-------|
Db|-------4---------------4---------------4---------------4-----------|
Ab|-0---0---0---0---0---0---0---0-------------------------------------|
Eb|---------------------------------3---3---3---3---3---3---3---3-----|

eb|-0---------0-----0---------0-----0---------0-----0-----------------|
Bb|-------------------------------------------------------------------|
Ab|-----------------------------------------------------------2-------|
Db|-------6\--------------4/--------------6\--------------4/----------|
Ab|-------------------------------------------------------------------|
Eb|-0---0---0---0---0---0---0---0---0---0---0---0---0---0---0---0-----|

Are you aware of the mess you left behind...
eb|-0---------------0---------------0---------------0-----------------|
Bb|-------------------------------------------------------------------|
Ab|-----------2---------------2---------------2---------------2-------|
Db|-------4---------------4---------------4---------------4-----------|
Ab|-0---0---0---0---0---0---0---0-------------------------------------|
Eb|---------------------------------3---3---3---3---3---3---3---3-----|

eb|-0---------0-----0---------------0---------0-----0-----------------|
Bb|-------------------------------------------------------------------|
Ab|---------------------------2-------------------------------2-------|
Db|-------6\--------------4/--------------6\--------------4/----------|
Ab|-------------------------------------------------------------------|
Eb|-0---0---0---0---0---0---0---0---0---0---0---0---0---0---0---0-----|

Chorus
This next part has two guitars. 
The 2nd one plays this riff for the whole chorus
eb|12--------12----12---------12----|
Bb|---------------------------------|
Ab|-------12--------------12--------|
Db|---------------------------------|
Ab|---------------------------------|
Eb|---------------------------------|

Scared to think away the cheer...
eb|-0---------0-----0---------0-----0---------0-----0---------0-------|
Bb|(3)----3--------(3)----3--------(4)----4--------(4)----4-----------|
Ab|-------------------------------------------------------------------|
Db|-------------------------------------------------------------------|
Ab|-0---0---0---0---0---0---0---0---2---2---2---2---2---2---2---2-----|
Eb|-------------------------------------------------------------------|

eb|-0---------------0---------------0---------------------------------|
Bb|(1)--------1----(1)--------1----(0)--------------0-----------------|
Ab|-------2---------------2-------------------2---------------2-------|
Db|---------------------------------------4---------------4-----------|
Ab|-3---3---3---3---3---3---3---3-------------------------------------|
Eb|---------------------------------3---3---3---3---3---3---3---3-----|

Looking back in a mirror...                        It all becomes clear
eb|-0---------0-----0---------0-----0---------0-----0---------0-------|
Bb|(3)----3--------(3)----3--------(4)----4--------(4)----4-----------|
Ab|-------------------------------------------------------------------|
Db|-------------------------------------------------------------------|
Ab|-0---0---0---0---0---0---0---0---2---2---2---2---2---2---2---2-----|
Eb|-------------------------------------------------------------------|

                    The views are not the same
eb|-0---------------0---------------0---------------0-----------------|
Bb|(1)--------1----(1)--------1----(0)-------------(0)----------------|
Ab|-------2---------------2-------------------2---------------2-------|
Db|---------------------------------------4---------------4-----------|
Ab|-3---3---3---3---3---3---3---3-------------------------------------|
Eb|---------------------------------3---3---3---3---3---3---3---3-----|

I see sun, you see rain...
eb|-0---------------0-------|
Bb|(0)-------------(0)------|
Ab|-----------2-------------|
Db|-------4-----------------|
Ab|-------------------------|
Eb|-3---3---3---3-----------|

                    Cleaning up the mess you left behind...
eb|-0---------0-----0---------------0---------0-----0-----------------|
Bb|-------------------------------------------------------------------|
Ab|---------------------------2---------------------------------2-----|
Db|-------6\--------------4/--------------6\--------------4/----------|
Ab|-------------------------------------------------------------------|
Eb|-0---0---0---0---0---0---0---0---0---0---0---0---0---0---0---0-----|

eb|-0---------0-----0-------------------------------------------------|
Bb|-------------------------------------------------------------------|
Ab|---------------------------2---------------------------------------|
Db|-------6\--------------4-------/6----------------------------------|
Ab|-------------------------------------------------------------------|
Eb|-0---0---0---0---0---0---0-----------------------------------------|

| /  slide up
| \  slide down
| h  hammer-on
| p  pull-off
| ~  vibrato
| +  harmonic
| x  Mute note
===============================================================================
            
Submit corrections

comments powered by Disqus
↑ Back to top | Zero 7 Tabs for Left Behind. Lyrics for acoustic guitar and electric guitar. 1 Tablatures and chords are parodies/interpretations of the original songs. You may use it for private study, scholarship, research or language learning purposes only