» » »

Rip And Destroy Tabs (ver.1)

Artists:  A B C D E F G H I J K L M N O P Q R S T U V W X Y Z # 

Rip And Destroy Tabs (ver.1)

Zeke
Rating:
0/5 (0 votes)

Hard to play? Try these video lessons and learn fast.
                rip and destroy


zeke





GT1
e:------------------------------------|
B:------------------------------------|
G:------------------------------------|
D:-6-6--9-8--11-11-11-11-11-9-9-9--4--|
A:-4-4--7-6--9--9--9--9--9--7-7-7--6--|
E:------------------------------------|
GT2
e:--------------------------------|
B:--------------------------------|
G:--------------------------------|
D:-----------4-4-4-4-4------------|
A:-4-4--7-6-------------7-7-7--6--|
E:--------------------------------|

e:------------------------------------|
B:------------------------------------|
G:------------------------------------|
D:-2-2-2-2--5---5----2-2-2-2--5---4---|
A:-0-0-0-0--3-0-3-0--0-0-0-0--3-0-2-0-|
E:------------------------------------|

e:------------------------------------|
B:------------------------------------|
G:------------------------------------|
D:-6-6--9-8--11-11-11-11-11-9-9-9--4--|
A:-4-4--7-6--9--9--9--9--9--7-7-7--6--|
E:------------------------------------|


e:--------------------------------|
B:--------------------------------|
G:--------------------------------|
D:-----------4-4-4-4-4------------|
A:-4-4--7-6-------------7-7-7--6--|
E:--------------------------------|

e:------------------------------------|
B:------------------------------------|
G:------------------------------------|
D:-2-2-2-2--5---5----2-2-2-2--5---4---|
A:-0-0-0-0--3-0-3-0--0-0-0-0--3-0-2-0-|
E:------------------------------------|

e:------------------------------------|
B:------------------------------------|
G:------------------------------------|
D:-6-6--9-8--11-11-11-11-11-9-9-9--4--|
A:-4-4--7-6--9--9--9--9--9--7-7-7--6--|
E:------------------------------------|
            
Hard to play? Try these video lessons and learn fast. | Correct




comments powered by Disqus
↑ Back to top | Tablatures and chords are parodies/interpretations of the original songs. You may use it for private study, scholarship, research or language learning purposes only