» » »

Kill The King Tabs (ver.1)

Artists:  A B C D E F G H I J K L M N O P Q R S T U V W X Y Z # 

Kill The King Tabs (ver.1)

Zeke
Rating:
0/5 (0 votes)

Hard to play? Try these video lessons and learn fast.
                kill the king


zeke






3 steps down

C# tuning

e:------------------------|
B:------------------------|
G:-4-------7---4----------|
D:-4---5---7---4---5---2--|
A:-2---5---5---2---5---2--|
E:-----3-----------3---0--|


e:-----------|
B:-----------|
G:-----------|
D:-44444-777-|
A:-22222-555-|
E:-----------|

verse
e:-----------|
B:-----------|
G:-----------|
D:-44444-777-|
A:-22222-555-|
E:-----------|

e:------------------|
B:------------------|
G:------------------|
D:----------5-55555-|
A:-5-55555--3-33333-|
E:-3-33333----------|

:-6b-6b-66-99-66-88-66-------------------------|
:-9b-9b----------------9-66-88-66-------6-9-9b-|
:---------------------------------8-6-8--------|
:----------------------------------------------|
:----------------------------------------------|
:----------------------------------------------|


e:---------------------|
B:---------------------|
G:---------------------|
D:---------------------|
A:-5-5-5-5-5-2-2-2-2-2-|
E:-3-3-3-3-3-0-0-0-0-0-|


kill the king!
e:-----------|
B:-----------|
G:-----------|
D:-44444-777-|
A:-22222-555-|
E:-----------|

verse
e:-----------|
B:-----------|
G:-----------|
D:-44444-777-|
A:-22222-555-|
E:-----------|

e:------------------|
B:------------------|
G:------------------|
D:----------5-55555-|
A:-5-55555--3-33333-|
E:-3-33333----------|

:-6b-6b-66-99-66-88-66-------------------------|
:-9b-9b----------------9-66-88-66-------6-9-9b-|
:---------------------------------8-6-8--------|
:----------------------------------------------|
:----------------------------------------------|
:----------------------------------------------|


e:---------------------|
B:---------------------|
G:---------------------|
D:---------------------|
A:-5-5-5-5-5-2-2-2-2-2-|
E:-3-3-3-3-3-0-0-0-0-0-|


kill the king!
e:-----------|
B:-----------|
G:-----------|
D:-44444-777-|
A:-22222-555-|
E:-----------|

e:-6b-6b-6b-6b-6b-6b-6b-6b-6b---9b--9b--9b--9b--9b--9b--9b--9b--9b--14b-14b-14b-14b-14b-14b|
B:-9b-9b-9b-9b-9b-9b-9b-9b-9b--12b-12b-12b-12b-12b-12b-12b-12b-12b--17b-17b-17b-17b-17b-17b|
G:-----------------------------------------------------------------------------------------|
D:-----------------------------------------------------------------------------------------|
A:-----------------------------------------------------------------------------------------|
E:-----------------------------------------------------------------------------------------|

e:-----------|
B:-----------|
G:-----------|
D:-4-2-4-777-|
A:-2-0-2-555-|
E:-----------|

 verse
e:-----------|
B:-----------|
G:-----------|
D:-4-2-4-777-|
A:-2-0-2-555-|
E:-----------|


e:------------------|
B:------------------|
G:------------------|
D:----------5-55555-|
A:-5-55555--3-33333-|
E:-3-33333----------|

:-6b-6b-66-99-66-88-66-------------------------|
:-9b-9b----------------9-66-88-66-------6-9-9b-|
:---------------------------------8-6-8--------|
:----------------------------------------------|
:----------------------------------------------|
:----------------------------------------------|


e:---------------------|
B:---------------------|
G:---------------------|
D:---------------------|
A:-5-5-5-5-5-2-2-2-2-2-|
E:-3-3-3-3-3-0-0-0-0-0-|

kill the king
e:-----------|
B:-----------|
G:-----------|
D:-4-2-4-777-|
A:-2-0-2-555-|
E:-----------|

:-----------------------------------------|
:-----------------------------------------|
:-----------------------------------------|
:-4---------------------------------------|
:-2---------------------------------------|
:-----------------------------------------|
            
Hard to play? Try these video lessons and learn fast. | Correct




comments powered by Disqus
↑ Back to top | Tablatures and chords are parodies/interpretations of the original songs. You may use it for private study, scholarship, research or language learning purposes only