>
 >
I Believe In Miracles 1

I Believe In Miracles 1 Guitar Tabs

Zeke - I Believe In Miracles 1 chords, tabs, tablatures, lyrics

Guitar lessons | Add/correct | Request | Top 50 tabs Artists:  A B C D E F G H I J K L M N O P Q R S T U V W X Y Z 0-9

I Believe In Miracles 1 Guitar Tabs – Zeke

CD, Sheet music, Poster

Do you like I Believe In Miracles 1? Share with your friends now
TabsTabs v2
i Believe in miracles


eddie vedder & zeke






e:----------------------------------------|
B:----------------------------------------|
G:----------------------------------------|
D:-4-4-4-4-4-4------------------------9-9-|
A:-2-2-2-2-2-2--4-4--5-5-5-5-5-5-5-5--7-7-|
E:--------------2-2--3-3-3-3-3-3-3-3------|

e:----------------------------------------------------------------------|
B:----------------------------------------------------------------------|
G:----------------------------------------------------------------------|
D:-4-4-4-4-4-4----------------------------------------------------------|
A:-2-2-2-2-2-2--4-4--5-5-5-5-5-5-5-5-5-5-5-5--7-7-7-7-7-7-7-7-7-7-7-7-7-|
E:--------------2-2--3-3-3-3-3-3-3-3-3-3-3-3--5-5-5-5-5-5-5-5-5-5-5-5-5-|

verse
e:----------------------------------------|
B:----------------------------------------|
G:----------------------------------------|
D:-4-4-4-4-4-4------------------------9-9-|
A:-2-2-2-2-2-2--4-4--5-5-5-5-5-5-5-5--7-7-|
E:--------------2-2--3-3-3-3-3-3-3-3------|

e:---------------------------------------------------------------------------|
B:---------------------------------------------------------------------------|
G:---------------------------------------------------------------------------|
D:-4-4-4-4-4-4-----------------------------------------------------------9-9-|
A:-2-2-2-2-2-2--4-4--5-5-5-5-5-5-5-5-5-5-5-5--7-7-7-7-7-7-7-7-7-7-7-7-7--7-7-|
E:--------------2-2--3-3-3-3-3-3-3-3-3-3-3-3--5-5-5-5-5-5-5-5-5-5-5-5-5------|

e:----------------------------------------|
B:----------------------------------------|
G:----------------------------------------|
D:-4-4-4-4-4-4------------------------9-9-|
A:-2-2-2-2-2-2--4-4--5-5-5-5-5-5-5-5--7-7-|
E:--------------2-2--3-3-3-3-3-3-3-3------|

e:----------------------------------------------------------------------|
B:----------------------------------------------------------------------|
G:----------------------------------------------------------------------|
D:-4-4-4-4-4-4----------------------------------------------------------|
A:-2-2-2-2-2-2--4-4--5-5-5-5-5-5-5-5-5-5-5-5--7-7-7-7-7-7-7-7-7-7-7-7-7-|
E:--------------2-2--3-3-3-3-3-3-3-3-3-3-3-3--5-5-5-5-5-5-5-5-5-5-5-5-5-|

GT1
e:------------------------------------------------------------------|
B:------------------------------------------------------------------|
G:------------------------------------------------------------------|
D:------------------------------------------------------------------|
A:-9-9-9-9-9-9-9-9-9--7-7-7-7-7-7-7-7-7--5-5-5-5-5-5-5-5-5----------|
E:-7-7-7-7-7-7-7-7-7--5-5-5-5-5-5-5-5-5--3-3-3-3-3-3-3-3-3--3-2-3-5-|

GT2
e:-7------------------5------------------3--------------------------|
B:-7------------------5------------------3--------------------------|
G:-7------------------5------------------3--------------------------|
D:-9------------------7------------------5--------------------------|
A:-9------------------7------------------5--------------------------|
E:-7------------------5------------------3------------------3-2-3-5-|

verse
e:----------------------------------------|
B:----------------------------------------|
G:----------------------------------------|
D:-4-4-4-4-4-4------------------------9-9-|
A:-2-2-2-2-2-2--4-4--5-5-5-5-5-5-5-5--7-7-|
E:--------------2-2--3-3-3-3-3-3-3-3------|

e:---------------------------------------------------------------------------|
B:---------------------------------------------------------------------------|
G:---------------------------------------------------------------------------|
D:-4-4-4-4-4-4-----------------------------------------------------------9-9-|
A:-2-2-2-2-2-2--4-4--5-5-5-5-5-5-5-5-5-5-5-5--7-7-7-7-7-7-7-7-7-7-7-7-7--7-7-|
E:--------------2-2--3-3-3-3-3-3-3-3-3-3-3-3--5-5-5-5-5-5-5-5-5-5-5-5-5------|

e:----------------------------------------|
B:----------------------------------------|
G:----------------------------------------|
D:-4-4-4-4-4-4------------------------9-9-|
A:-2-2-2-2-2-2--4-4--5-5-5-5-5-5-5-5--7-7-|
E:--------------2-2--3-3-3-3-3-3-3-3------|

e:-----------------------------------------------------------------------|
B:-----------------------------------------------------------------------|
G:-----------------------------------------------------------------------|
D:-4-4-4-4-4-4-----------------------------------------------------------|
A:-2-2-2-2-2-2--4-4--5-5-5-5-5-5-5-5-5-5-5-5--7-7-7-7-7-7-7-7-7-7-7-7-7--|
E:--------------2-2--3-3-3-3-3-3-3-3-3-3-3-3--5-5-5-5-5-5-5-5-5-5-5-5-5--|

GT1
e:------------------------------------------------------------------|
B:------------------------------------------------------------------|
G:------------------------------------------------------------------|
D:------------------------------------------------------------------|
A:-9-9-9-9-9-9-9-9-9--7-7-7-7-7-7-7-7-7--5-5-5-5-5-5-5-5-5----------|
E:-7-7-7-7-7-7-7-7-7--5-5-5-5-5-5-5-5-5--3-3-3-3-3-3-3-3-3--3-2-3-5-|

GT2
e:-7------------------5------------------3--------------------------|
B:-7------------------5------------------3--------------------------|
G:-7------------------5------------------3--------------------------|
D:-9------------------7------------------5--------------------------|
A:-9------------------7------------------5--------------------------|
E:-7------------------5------------------3------------------3-2-3-5-|


e:-5------5-----3----3-------|
B:-5------5-----3------3---3-|
G:-6------6-----4--------4---|
D:-7------7-----5------------|
A:-7------7-----5------------|
E:-5------5-----3------------|

e:-5------5-----3-----5------|
B:-5------5-----3-----5------|
G:-6------6-----4-----6------|
D:-7------7-----5-----7------|
A:-7------7-----5-----7------|
E:-5------5-----3-----5------|

solo
:-7B---7B---7B---7B---7B---7B---7B---7B----------------------------------------------------|
:-10B--10B--10B--10B--10B--10B--10B--10B--7-10-7-10-7--------------------------------------|
:-----------------------------------------------------10-7-9-7-9-7-------------------------|
:------------------------------------------------------------------9-7-9-7----------------9|
:--------------------------------------------------------------------------9-7-9-7----7-9--|
:-----------------------------------------------------------------------------------7------|

                                                         pick slide
e:--9B--9B--10B--12B--14B--14B-14B-14B-14B-14B-14B--12B------------|
B:-12B-12B--13B--15B--17B--17B-17B-17B-17B-17B-17B--15B------------|
G:-----------------------------------------------------------------|
D:-----------------------------------------------------------------|
A:-------------------------------------------------------x/--------|
E:-------------------------------------------------------x/--------|

GT1
e:------------------------------------------------------------------|
B:------------------------------------------------------------------|
G:------------------------------------------------------------------|
D:------------------------------------------------------------------|
A:-9-9-9-9-9-9-9-9-9--7-7-7-7-7-7-7-7-7--5-5-5-5-5-5-5-5-5----------|
E:-7-7-7-7-7-7-7-7-7--5-5-5-5-5-5-5-5-5--3-3-3-3-3-3-3-3-3--3-2-3-5-|

GT2
e:-7------------------5------------------3--------------------------|
B:-7------------------5------------------3--------------------------|
G:-7------------------5------------------3--------------------------|
D:-9------------------7------------------5--------------------------|
A:-9------------------7------------------5--------------------------|
E:-7------------------5------------------3------------------3-2-3-5-|

e:---------------------------------------------------------|
B:---------------------------------------------------------|
G:----------------------------------------9Bp7---7---------|
D:---------------------------------------------9---9~~~----|
A:---------------------------------------------------------|
E:---------------------------------------------------------|


e:--9B--9B--10B--12B--14B--14B-14B-14B-14B-14B-14B--17B-17B-17B-17B-17B--14B-14B------14B-|
B:-12B-12B--13B--15B--17B--17B-17B-17B-17B-17B-17B--20B-20B-20B-20B-20B--17B-17B--17B-----|
G:----------------------------------------------------------------------------------------|
D:----------------------------------------------------------------------------------------|
A:----------------------------------------------------------------------------------------|
E:----------------------------------------------------------------------------------------|

e:-----14B------14B-----14B------14B-------------|
B:-17B-----17B------17B------17B-----17B---------|
G:-----------------------------------------------|
D:-----------------------------------------------|
A:-----------------------------------------------|
E:-----------------------------------------------|

e:----------------------------------------|
B:----------------------------------------|
G:----------------------------------------|
D:-4-4-4-4-4-4------------------------9-9-|
A:-2-2-2-2-2-2--4-4--5-5-5-5-5-5-5-5--7-7-|
E:--------------2-2--3-3-3-3-3-3-3-3------|

                 slide hands
:---------------------------|
:---------------------x/----|
:---------------------x/----|
:-4-------------------x/----|
:-2-------------------x/----|
:---------------------------|





Comments


Popular Zeke tabs & chords
Automatic Tabs
Hate Tabs
Haybailer Tabs
I Dont Give A 1 Tabs
Let's Get Drugs Tabs
Maybe Someday Tabs
Ride With Zeke Tabs
Rip And Destroy 1 Tabs
Spoonful Of Soul Tabs
Zeke You Tabs


Song lyrics



↑ Back to top | Tablatures and chords are parodies/interpretations of the original songs. You may use it for private study, scholarship, research or language learning purposes only
© 2014 AZChords.com Contact us | Privacy policy | DMCA | Add/correct tabs | Request tabs | Top 50 tabs