» » »

Zeke, Horror At Red Hook Tabs (ver.2)

Artists:  A B C D E F G H I J K L M N O P Q R S T U V W X Y Z # 

Horror At Red Hook Tabs (ver.2)

Zeke Tabs
 Rating:
4/5 (4 votes)
Horror At Red Hook lessons Tabs too difficult? Try these video lessons and learn fast
                horror at red hook


zeke






e:-------------------------------------|
B:-------------------------------------|
G:-------------------------------------|
D:-3-3-3-3--6-6-6-6-6--8-8-8-8-8-9-8-6-|
A:-1-1-1-1--4-4-4-4-4--6-6-6-6-6-7-6-4-|
E:-------------------------------------|

e:--------------------|
B:--------------------|
G:--------------------|
D:-3-3-3-3-3-3--8--6--|
A:-1-1-1-1-1-1--6--4--|
E:--------------------|

e:-------------------|
B:-------------------|
G:-------------------|
D:-3-3-3-3-3-3--6-6--|
A:-1-1-1-1-1-1--4-4--|
E:-------------------|

e:-------------------------------------|
B:-------------------------------------|
G:-------------------------------------|
D:-3-3-3-3--6-6-6-6-6--8-8-8-8-8-9-8-6-|
A:-1-1-1-1--4-4-4-4-4--6-6-6-6-6-7-6-4-|
E:-------------------------------------|

e:--------------------|
B:--------------------|
G:--------------------|
D:-3-3-3-3-3-3--8--6--|
A:-1-1-1-1-1-1--6--4--|
E:--------------------|

e:-------------------|
B:-------------------|
G:-------------------|
D:-3-3-3-3-3-3--6-6--|
A:-1-1-1-1-1-1--4-4--|
E:-------------------|

e:-------------------------------------|
B:-------------------------------------|
G:-------------------------------------|
D:-3-3-3-3--6-6-6-6-6--8-8-8-8-8-9-8-6-|
A:-1-1-1-1--4-4-4-4-4--6-6-6-6-6-7-6-4-|
E:-------------------------------------|

e:----------------------|
B:----------------------|
G:----------------------|
D:-3--6--3----6---------|
A:-1--4--1----4--6--8---|
E:---------------4--6---|


:------------------------------------------------------------------------------|
:------------------------------------------------------------------------------|
:------------------------------------------------------------------------------|
:-8-8-8-8-8-8-8-8-8--3-3-3-3-3-3-3-3-3--8-8-8-8-8-8-8-8-8----------------------|
:-6-6-6-6-6-6-6-6-6--1-1-1-1-1-1-1-1-1--6-6-6-6-6-6-6-6-6--3-3-3-3-3-3-3-3-3-3-|
:----------------------------------------------------------1-1-1-1-1-1-1-1-1-1-|


e:-------------------------------------|
B:-------------------------------------|
G:-------------------------------------|
D:-3-3-3-3--6-6-6-6-6--8-8-8-8-8-9-8-6-|
A:-1-1-1-1--4-4-4-4-4--6-6-6-6-6-7-6-4-|
E:-------------------------------------|

             pick slide
e:--------------------------|
B:--------------------------|
G:--------------------------|
D:-3--6--3--------6---------|
A:-1--4--1---x\---4--6--8---|
E:-----------x\------4--6---|
            
Submit corrections

comments powered by Disqus
↑ Back to top | Zeke Tabs for Horror At Red Hook. Lyrics for acoustic guitar and electric guitar. Tablatures and chords are parodies/interpretations of the original songs. You may use it for private study, scholarship, research or language learning purposes only