» » »

Zeke, Evil Dead Tabs (ver.1)

Artists:  A B C D E F G H I J K L M N O P Q R S T U V W X Y Z # 

Evil Dead Tabs (ver.1)

Zeke Tabs
 Rating:
4/5 (4 votes)
Evil Dead lessons Tabs too difficult? Try these video lessons and learn fast
                evil dead (solo)


zeke





solo 1
eb:---------------------------------------------------------------12-15-12-14-12-14-12--14-|
Bb:------------------------------------------12-15-15-12-14-12-14--------------------------|
Gb:------------------------------------2/14------------------------------------------------|
Db:----------------2-2-3-2-----------------------------------------------------------------|
Ab:-2-2-2-2-5-5-5----------5-5-2-2-2-------------------------------------------------------|
Eb:----------------------------------------------------------------------------------------|

eb:-17-14-14-16-14-----14-17-14-14-16-14-16-14--18b--18b~~~~-|
Bb:----------------17----------------------------------------|
Gb:----------------------------------------------------------|
Db:----------------------------------------------------------|
Ab:----------------------------------------------------------|
Eb:----------------------------------------------------------|


solo 2                                                                                  -
:--------------------------------------------------------------------------------------/---|
:-12~~~-12-15-12-15-12----12----------------------------------------------------------/----|
:----------------------15----15-12-14-12-14-12---------------------------------------/-----|
:----------------------------------------------14-12-14-12----12----12----12-14-14bf/-14p12|
:----------------------------------------------------------14----14----14------------------|
:------------------------------------------------------------------------------------------|

:------------|
:------------|
:------------|
:------------|
:-14~~~~-----|
:------------|
            
Submit corrections

comments powered by Disqus
↑ Back to top | Zeke Tabs for Evil Dead. Lyrics for acoustic guitar and electric guitar. Tablatures and chords are parodies/interpretations of the original songs. You may use it for private study, scholarship, research or language learning purposes only