» » »

Evil Dead Bass tabs (ver.1)

Artists:  A B C D E F G H I J K L M N O P Q R S T U V W X Y Z # 

Evil Dead Bass tabs (ver.1)

Zeke
Rating:
0/5 (0 votes)

Tabs too difficult? Try these video lessons and learn fast.
                Zeke

=play a couple of time
( )=ghost note
/=slide down
\=slide up
ring=let it sound

tune your E string to = Eb tuning - down 1/2 step.


Intro with guitar solo
G|------|
D|------|
A|-1>---|
E|------|

verse with singing
G|--------------------------------------------------|
D|--------------------------------------------------|
A|-------------------------------------4-4----------|
E|-3>-5>-7>---3>-5>-7>---3>-0>-7>---3>-----5-7ring--|

G|-----------------------------------------|
D|-----------------------------------------|
A|---------------------------------4>/6>---|
E|-3>-5>-7>---3>-5>-7>---3>-0>-7>----------|

Chorus
G|-------------------------------------------------|
D|-------------------------------------------------|
A|-------------------------------------------------|
E|-7-7--7\3-5--7-7--7\3-5--7-7--7\3-5--7-7--7\3-5--|

Bridge
G|------------------------------------------------------------------|
D|------------------------------------------------------------------|
A|------------------------------------------------------------------|
E|-7-7-5-5-7-7-5-5-7-7-5-5-7-7-5-5-7-7-5-5-7-7-5-5-7-7-5-5-7-7-5-5--|

G|---------------------------------------------------------------|
D|---------------------------------------------------------------|
A|--------------------------------------------------6-6-6-6-4-4--|
E|-7-7-5-5-7-7-5-5-7-7-5-5-7-7-5-5-7-7-5-5-7-7-5-5---------------|

G|------------------------------------------|
D|------------------------------------------|
A|----6>/9>-----6>/9>-----6>/9>-----6>/9>---|
E|-7>--------7>--------7>--------7>---------|

Chorus
G|--------------------------------------------|
D|--------------------------------------------|
A|--------------------------------------------|
E|-7-7--7\3-5--7-7--7\3-5--7-7--7\3-5--7\(2)--|

Verse
G|---------------------------------------|
D|---------------------------------------|
A|--------------------------------4>/6>--|
E|-3>-5>-7>---3>-5>-7>---3>-0>-7>--------|

Chorus x8
G|--------------|(The eight time do)------|
D|--------------|-------------------------|
A|--------------|-------------------------|
E|-7-7--7\3-5---|-7-7--7\3-5-7-7-7-7------|
            
Tabs too difficult? Try these video lessons and learn fast.




comments powered by Disqus
↑ Back to top | Tablatures and chords are parodies/interpretations of the original songs. You may use it for private study, scholarship, research or language learning purposes only