» » »

Zeke, Chiva Tabs (ver.1)

Artists:  A B C D E F G H I J K L M N O P Q R S T U V W X Y Z # 

Chiva Tabs (ver.1)

Zeke Tabs
 Rating:
4/5 (4 votes)
Chiva lessons Tabs too difficult? Try these video lessons and learn fast
                chiva


zeke






e:-----------------------------------------|
B:-----------------------------------------|
G:-----------------------------------------|
D:-9--9-9--9--9-9--9--9-9--9--9-9----------|
A:-7--7-7--7--7-7--7--7-7--7--7-7--8--7--5-|
E:---------------------------------6--5--3-|

e:----------------------------------|
B:----------------------------------|
G:----------------------------------|
D:----------------------------------|
A:-7-7-7-7-7-7-7--10-10-10-10-10-10-|
E:-5-5-5-5-5-5-5--8--8--8--8--8--8--|

e:-------------------------------------------|
B:-------------------------------------------|
G:-------------------------------------------|
D:-------------------------------------------|
A:-2-2-2-2-2--7-7-7-7-7--2-2-2-2-2--5--7--5--|
E:-0-0-0-0-0--5-5-5-5-5--0-0-0-0-0--3--5--3--|

e:-------------------------------------------|
B:-------------------------------------------|
G:-------------------------------------------|
D:-------------------------------------------|
A:-2-2-2-2-2--7-7-7-7-7--2-2-2-2-2--8--7--5--|
E:-0-0-0-0-0--5-5-5-5-5--0-0-0-0-0--6--5--3--|

e:-------------------------------------------|
B:-------------------------------------------|
G:-------------------------------------------|
D:-------------------------------------------|
A:-2-2-2-2-2--7-7-7-7-7--2-2-2-2-2--5--7--5--|
E:-0-0-0-0-0--5-5-5-5-5--0-0-0-0-0--3--5--3--|

e:-------------------------------------------|
B:-------------------------------------------|
G:-------------------------------------------|
D:-------------------------------------------|
A:-2-2-2-2-2--7-7-7-7-7--2-2-2-2-2--8--7--5--|
E:-0-0-0-0-0--5-5-5-5-5--0-0-0-0-0--6--5--3--|


:-------------------|
:-------------------|
:-------------------|
:-------------------|
:-2--8-7-8-7--5--2--|
:-0--6-5-6-5--3--0--|


e:-----------------------------------------|
B:-----------------------------------------|
G:-----------------------------------------|
D:-9--9-9--9--9-9--9--9-9--9--9-9----------|
A:-7--7-7--7--7-7--7--7-7--7--7-7--8--7--5-|
E:---------------------------------6--5--3-|

e:----------------------------------|
B:----------------------------------|
G:----------------------------------|
D:----------------------------------|
A:-7-7-7-7-7-7-7--10-10-10-10-10-10-|
E:-5-5-5-5-5-5-5--8--8--8--8--8--8--|

e:-------------------------------------------|
B:-------------------------------------------|
G:-------------------------------------------|
D:-------------------------------------------|
A:-2-2-2-2-2--7-7-7-7-7--2-2-2-2-2--5--7--5--|
E:-0-0-0-0-0--5-5-5-5-5--0-0-0-0-0--3--5--3--|

e:-------------------------------------------|
B:-------------------------------------------|
G:-------------------------------------------|
D:-------------------------------------------|
A:-2-2-2-2-2--7-7-7-7-7--2-2-2-2-2--8--7--5--|
E:-0-0-0-0-0--5-5-5-5-5--0-0-0-0-0--6--5--3--|

e:-------------------------------------------|
B:-------------------------------------------|
G:-------------------------------------------|
D:-------------------------------------------|
A:-2-2-2-2-2--7-7-7-7-7--2-2-2-2-2--5--7--5--|
E:-0-0-0-0-0--5-5-5-5-5--0-0-0-0-0--3--5--3--|

e:-------------------------------------------|
B:-------------------------------------------|
G:-------------------------------------------|
D:-------------------------------------------|
A:-2-2-2-2-2--7-7-7-7-7--2-2-2-2-2--8--7--5--|
E:-0-0-0-0-0--5-5-5-5-5--0-0-0-0-0--6--5--3--|


e:------------------------------------------------------------------------|
B:------------------------------------------------------------------------|
G:------------------------------------------------------------------------|
D:------------------------------------------------------------------------|
A:-7-------7-------7-------7-------7-------7-------7-------7-------7------|
E:-0--0-0--0--0-0--0--0-0--0--0-0--0--0-0--0--0-0--0--0-0--0--0-0--0--0-0-|


e:-----------------------------------------|
B:-----------------------------------------|
G:-----------------------------------------|
D:-9--9-9--9--9-9--9--9-9--9--9-9----------|
A:-7--7-7--7--7-7--7--7-7--7--7-7--8--7--5-|
E:---------------------------------6--5--3-|

e:---------------------------------------------------|
B:---------------------------------------------------|
G:---------------------------------------------------|
D:-9--9-9--9--9-9--9--9-9--9--9-9--9-9-9-9-9-9-9-9-9-|
A:-7--7-7--7--7-7--7--7-7--7--7-7--7-7-7-7-7-7-7-7-7-|
E:---------------------------------------------------|

e:----------------------------------|
B:----------------------------------|
G:----------------------------------|
D:----------------------------------|
A:-7-7-7-7-7-7-7--10-10-10-10-10-10-|
E:-5-5-5-5-5-5-5--8--8--8--8--8--8--|

               pick slide
e:-------------------------|
B:-------------------------|
G:-------------------------|
D:-------------------------|
A:--7--5--2---x\---7--5--2-|
E:--5--3--0---x\---5--3--0-|
            
Submit corrections

comments powered by Disqus
↑ Back to top | Zeke Tabs for Chiva. Lyrics for acoustic guitar and electric guitar. Tablatures and chords are parodies/interpretations of the original songs. You may use it for private study, scholarship, research or language learning purposes only