» » »

Zebrahead, Type Aintro Tabs (ver.1)

Artists:  A B C D E F G H I J K L M N O P Q R S T U V W X Y Z # 

Type Aintro Tabs (ver.1)

Zebrahead Tabs
Rating:
0/5 (0 votes)
Type Aintro lessons Tabs too difficult? Try these video lessons and learn fast
                INTRO (drums for a couple seconds then...)
e---------------------|
B---------------------|
G---------------------|
D--555-4-44444444444--| (x4)
A--555-4-44444444444--|
E--333-2-22222222222--|

e------------|
B------------|
G------------|
D--555-4-44--|
A--555-4-44--|
E--333-2-22--|

VERSE (let the bass go for a while, then...)
e------------|
B------------|
G------------| (x4)
D--555-4-44--| (after each time you play this, do random harmonics
A--555-4-44--|  on the low e-string)
E--333-2-22--|

PRE CHORUS
e--------------------------------|
B--------------------------------|
G--7--------7--------7--------7--|
D--7--------7--------7--------7--|
A--5-555555-5-555555-5-555555-5--|
E----......---......---......----|

CHORUS ("I won't...")
e---------------------|
B---------------------|
G---------------------|
D--555-4-44444444444--| (x4)
A--555-4-44444444444--|
E--333-2-22222222222--|

AFTER CHORUS (weird breathing noises, then...)
e------------|
B------------|
G------------|
D--555-4-44--|
A--555-4-44--|
E--333-2-22--|

VERSE

PRE-CHORUS

CHORUS

BREAK
e---------|
B---------|
G--77777--|
D--77777--| (x8)
A--55555--|
E---------|

e-----|
B-----|
G-----|
D--4--| (hold out and pause for a bit
A--4--|  while bass and drums and vocals go)
E--2--|

CHORUS (x2)

END ON
e-----|
B-----|
G-----|
D--4--|
A--4--|
E--2--|
            
Submit corrections

comments powered by Disqus
↑ Back to top | Zebrahead Tabs for Type Aintro. Lyrics for acoustic guitar and electric guitar. Tablatures and chords are parodies/interpretations of the original songs. You may use it for private study, scholarship, research or language learning purposes only