>
 >
I Hate Christmas

I Hate Christmas Guitar Tabs

Zebrahead - I Hate Christmas chords, tabs, tablatures, lyrics

Guitar lessons | Add/correct | Request | Top 50 tabs Artists:  A B C D E F G H I J K L M N O P Q R S T U V W X Y Z 0-9

I Hate Christmas Guitar Tabs – Zebrahead

CD, Sheet music, Poster

Do you like I Hate Christmas? Share with your friends now
Tabs

This is a hell of a good song, here it is 

/ = slide up  \ = slide down  p = pull off  h = hammer on

Spoken Word Intro - "Christmas comes but ones a year" part
( ) = not played by guitar but implied by vocal notes and tone
e|--7-----5-----5-----8--7--7-----5--5-( 8)-(7)--------------------------------|
B|--8-----6-----6-----9--8--8-----6--6-( 9)-(8)--------------------------------|
G|--7-----5-----5-----8--7--7-----5--5-( 8)-(7)--------------------------------|
D|--9-----7-----7----10--9--9-----7--7-(10)-(9)--------------------------------|
A|--7-----5-----5-----8--7--7-----5--5-( 8)-(7)--------------------------------|
E|-----------------------------------------------------------------------------|

Intro Continued 
e|--7--7-7-7-7---55-5--5-5-5---55-5--5-5-5----8--8--8--8--7-7-7-7--------------|
B|--8--8-8-8-8---66-6--6-6-6---66-6--6-6-6----9--9--9--9--8-8-8-8--------------|
G|--9--9-9-9-9---77-7--7-7-7---77-7--7-7-7---10-10-10-10--9-9-9-9--------------|
D|--9--9-9-9-9---77-7--7-7-7---77-7--7-7-7---10-10-10-10--9-9-9-9--------------|
A|-----------------------------------------------------------------------------|
E|-----------------------------------------------------------------------------|

0:28 @ 1:30  Deck The Halls Lead 1 (play over Intro Continued) 
e|-----------------------------------------------------------------------------|
B|-----------------------------------------------------------------------------|
G|-----------------------------------------------------------------------------|
D|-5-2-0h2p0-2-4-5-4-2-0-2-4-5-0h2p0-2/4-5-4-2---------------------------------|
A|-----------------------------------------------------------------------------|
E|-----------------------------------------------------------------------------|

0:35  Deck the Halls Lead 2
e|-----------------------------------------------------------------------------|
B|-----------------------------------------------------------------------------|
G|-----------------------------------------------------------------------------|
D|-5-2-0h2p0-2-4-5-4-2-/5-4-/7-5-/9-7-5-4-2------------------------------------|
A|-----------------------------------------------------------------------------|
E|-----------------------------------------------------------------------------|

Verse Pattern Guitar 1
( ) = end Chord played before Chorus
e|--7-[7]--7-----5-[5]--5-----5-[5]--5----/-8---8--8--\7--7-7---(5)--|
B|--8-[8]---8----6-[6]---6----6-[6]---6---/-9---9--9--\8--8-8---(6)--|repeat X 2 
G|--9-[9]----9---7-[7]----7---7-[7]----7--/10--10-10--\9--9-9---(5)--|after lead 
D|--9-[9]--------7-[7]--------7---------------------------------(7)--|then +
A|-------------------------------------------------------------------|guitar 2
E|-------------------------------------------------------------------|

Verse Guitar 2 after 2 times w/o 
e|--777--7-7-7---555--5-5-5---555--5-5-5----8---8--8---7--7-7---(5)------------|
B|--888--8-8-8---666--6-6-6---666--6-6-6----9---9--9---8--8-8---(6)------------|
G|--999--9-9-9---777--7-7-7---777--7-7-7---10--10-10---9--9-9---(5)------------|
D|--999--9-9-9---777--7-7-7---777--7-7-7---10--10-10---9--9-9---(7)------------|
A|--777--7-7-7---555--5-5-5---555--5-5-5----8---8--8---7--7-7---(5)------------|
E|-----------------------------------------------------------------------------|

Chorus
e|-----------------------------------------------------------------------------|
B|-----------------------------------------------------------------------------|
G|------------9-9---9-9--------------------------------------------------------|
D|-9-9---9-9--9-9---9-9--7-7---7-7--9-9---9-9----------------------------------|
A|-9-9---9-9--7-7-x-7-7--7-7---7-7--9-9---9-9----------------------------------|
E|-7-7-x-7-7-------------5-5-x-5-5--7-7-x-7-7----------------------------------|

Chorus Cont.
e|-----------------------------------------------------------------------------|
B|-----------------------------------------------------------------------------|
G|-9-999999-----------------9-9--------------9------9-9--9-9-9-----------------|
D|-9-999999--9-9--9-7--7-7--9-9--7-7--9-9--7-9-777--9-9--9-9-9-----------------|
A|-7-777777--9-9--9-7--7-7--7-7--7-7--9-9--7-7-777--7-7--7-7-7-----------------|
E|-----------7-7--7-5--5-5-------5-5--7-7--5---555-----------------------------|

Bridge - Reggae Rap Swang
< > = mute  [ ] = rake up quickly ( ) = Chord played before Chorus 
e|-----[----7-]-7---------[----5-]-5---------[----5-]-5----/[-8]-\[7]---(7)----|
B|-----[---8--]--8--------[---6--]--6--------[---6--]--6---/[-9]-\[9]---(9)----|
G|-----[--9---]---9-------[--7---]---7-------[--7---]---7--/[-8]-\[7]---(7)----|
D|-<9>-[-9----]------/<7>-[-7----]------/<7>-[-7----]------/[10]-\[8]---(8)----|
A|----------------------------------------------------------------------(7)----|
E|-----------------------------------------------------------------------------|





Comments


Popular Zebrahead tabs & chords
Hello Tomorrow 2 Bass Tabs
Let It Ride Bass Tabs
The Real Me 1 Bass Tabs
Enemy Tabs
Hello Tomorrow 1 Tabs
Let It Ride Tabs
Playmate Of The Year 1 Tabs
Rated U For Ugly 1 Tabs
Two Wrongs Dont Make A Right But Three Rights Make A Left Tabs
Get Nice Ukulele


Song lyrics



↑ Back to top | Tablatures and chords are parodies/interpretations of the original songs. You may use it for private study, scholarship, research or language learning purposes only
© 2014 AZChords.com Contact us | Privacy policy | DMCA | Add/correct tabs | Request tabs | Top 50 tabs