» » »

E Generation Tabs (ver.1)

Artists:  A B C D E F G H I J K L M N O P Q R S T U V W X Y Z # 

E Generation Tabs (ver.1)

Zebrahead
Rating:
4/5 (2 votes)

Hard to play? Try these video lessons and learn fast.
                Band:   Zebrahead

Intro: 
---------------------------------------------|
---------------------------------------------|
-----------66666666--------------------------|
-44444444--66666666--22222222--7777-6666-----|
-44444444--44444444--22222222--7777-6666-----|
-22222222------------00000000--5555-4444-----|
 everything for the intro is palmmuted

Pre-Chorus:
------------------------|
------------------------|
------------------------|
-44--44--44--44/--------|
-44--44--44--44/--------|
-22--22--22--22/--------|

Chorus:
----------------------------------------------------------|
----------------------------------------------------------|
------6--4-4------------6--4-4----------------------------|
-4-4--6--4-4--2----4-4--6--4-4--2-----7777-6666--7777-6666|
-4-4--4--2-2--2----4-4--4--2-2--2-----7777-6666--7777-6666|
-2-2----------0----2-2----------0-----5555-4444--5555-4444|

Intro

Pre-Chorus

Chorus

Solo:
---------------------------------------------------|
---------------------------------------------------|
--666-666-666b-6-4-----------4---------------------|
-------------------7-6---4-7---6------6---4--------|
-----------------------7----------4-7---7----------|
---------------------------------------------------|

--------------------------------9-7------------------|
--------------7b-777b-777b-777b-----9-7-------7b-----|
-666-666-666b---------------------------9-6-8--------|
-----------------------------------------------------|
-----------------------------------------------------|
-----------------------------------------------------|

Other guitar plays the first part of the chorus during solo

Pre-Chorus

Chorus (start with second half of chorus)


I know the solo probably isn't as long as its supposed to be, but its the best i can come up with

Enjoy the ONLY E-Generation guitar tab on the internet
            
Hard to play? Try these video lessons and learn fast. | Correct




comments powered by Disqus
↑ Back to top | Tablatures and chords are parodies/interpretations of the original songs. You may use it for private study, scholarship, research or language learning purposes only