>
 >
Deck The Halls

Deck The Halls Guitar Tabs

Zebrahead - Deck The Halls chords, tabs, tablatures, lyrics

Guitar lessons | Add/correct | Request | Top 50 tabs Artists:  A B C D E F G H I J K L M N O P Q R S T U V W X Y Z 0-9

Deck The Halls Guitar Tabs – Zebrahead

CD, Sheet music, Poster

Do you like Deck The Halls? Share with your friends now
Tabs
Band: Zebrahead

Tuning: Standard

Intro (Part 1):

---7-----5-----5-----8--7--7-----5--5-8--7---|
---8-----6-----6-----9--8--8-----6--6-9--8---|
---7-----5-----5-----8--7--7-----5--5 8--7---|
---9-----7-----7----10--9--9-----7--7-10-9---|
---7-----5-----5-----8--7--7-----5--5-8--7---|
---------------------------------------------|


Intro (Part 2):

---7--7-7-7-7---55-5--5-5-5---55-5--5-5-5----8--8--8--8--7-7-7-7---|
---8--8-8-8-8---66-6--6-6-6---66-6--6-6-6----9--9--9--9--8-8-8-8---|
---9--9-9-9-9---77-7--7-7-7---77-7--7-7-7---10-10-10-10--9-9-9-9---|
---9--9-9-9-9---77-7--7-7-7---77-7--7-7-7---10-10-10-10--9-9-9-9---|
-------------------------------------------------------------------|
-------------------------------------------------------------------|


Intro (Part 3):

-------------------------------------------------|
-------------------------------------------------|
-------------------------------------------------|
---5-2-0h2p0-2-4-5-4-2-0-2-4-5-0h2p0-2/4-5-4-2---|
-------------------------------------------------|
-------------------------------------------------|

----------------------------------------------|
----------------------------------------------|
----------------------------------------------|
---5-2-0h2p0-2-4-5-4-2-/5-4-/7-5-/9-7-5-4-2---|
----------------------------------------------|
----------------------------------------------|


Verse:

---7---7-----5---5-----5---5----/-8---8--8--7--7-7---|
---8----8----6----6----6----6---/-9---9--9--8--8-8---|
---9-----9---7-----7---7-----7--/10--10-10--9--9-9---|
---9---------7---------7-----------------------------| x2
-----------------------------------------------------|
-----------------------------------------------------|

---777--7-7-7---555--5-5-5---555--5-5-5----8---8--8---7--7-7---5---|
---888--8-8-8---666--6-6-6---666--6-6-6----9---9--9---8--8-8---6---|
---999--9-9-9---777--7-7-7---777--7-7-7---10--10-10---9--9-9---5---|
---999--9-9-9---777--7-7-7---777--7-7-7---10--10-10---9--9-9---7---|
---777--7-7-7---555--5-5-5---555--5-5-5----8---8--8---7--7-7---5---|
-------------------------------------------------------------------|


Chorus:

------------------------------------------------|
------------------------------------------------|
--------------9-9---9-9-------------------------|
---9-9---9-9--9-9---9-9--7-7---7-7--9-9---9-9---|
---9-9---9-9--7-7---7-7--7-7---7-7--9-9---9-9---|
---7-7---7-7-------------5-5---5-5--7-7---7-7---|

I did not figure it out myself, but i had the same idea in the intro and i just copied 
made little changes..


h = hammer-on
p = pull-off
/ = slide





Comments


Popular Zebrahead tabs & chords
Anthem 1 Bass Tabs
Anthem 2 Bass Tabs
In My Room 2 Bass Tabs
Down In Flames Intro Tabs
Hell Yeah Tabs
Jag Off Tabs
Over The Edge 1 Tabs
Playmate Of The Year 2 Tabs
Playmate Of The Year 6 Tabs
Runaway 1 Tabs


Song lyrics



↑ Back to top | Tablatures and chords are parodies/interpretations of the original songs. You may use it for private study, scholarship, research or language learning purposes only
© 2014 AZChords.com Contact us | Privacy policy | DMCA | Add/correct tabs | Request tabs | Top 50 tabs