» » »

Zebrahead, Broadcast Tabs (ver.1)

Artists:  A B C D E F G H I J K L M N O P Q R S T U V W X Y Z # 

Broadcast Tabs (ver.1)

Zebrahead Tabs
 Rating:
4/5 (5 votes)
Broadcast lessons Tabs too difficult? Try these video lessons and learn fast
                Zebrahead
"Broadcast To The World"
Broadcast To The World


this is an awesome new song off of their latest album...the cd isn't released in the US 
(it should be soon) but it's played on a video on the band's site if you haven't heard 
you have, then here's a good tab for the song...


Tuning:Half Step Down

Intro-i don't really know what the whistling part is
Both Guitars ring in with:
e---
b---
g---
d-2~
a-2~
E-0~
Intro Cont.
Both Guitars-Repeat this same thing through the whole intro
e---------------|
b---------------|
g-------(12///)-|
d-2-2x--(12///)-|
a-2-2x--(10///)-|
E-0-0x----------|

Verse
Both Guitars
e--------------------------------------|
b--------------------------------------|
g--------------------------------------|
d-2x-------2-2x-------2-2x--------2-2x-|
a-2x-------2-2x-------2-2x--------2-2x-|
E-0x-------0-0x-------0-0x--------0-0x-|

e---------------------------------|
b--(harmonic notes)---------------|
g-9-9-9-------9-9-9-------9-9-----|
d-------9-9-9-------9-9-9-----9-9-|
a---------------------------------|
E---------------------------------|

(x3)
e---------------|
b---------------|
g-------(12///)-|
d-2-2x--(12///)-|
a-2-2x--(10///)-|
E-0-0x----------|

Pre Chorus-"i wanna have it all and i want it right now..."
Guitar 1
e---------------------------------|
b---------------------------------|
g-4-4-4---------------------------|
d-2-2-2-5-5-5-7-7-7-7-7-7-5-5-7-7-|
a-2-2-2-5-5-5-5-5-5-7-7-7-5-5-7-7-|
E-0-0-0-3-3-3-5-5-5-5-5-5-3-3-5-5-|
Guitar 2
e---------------------------------|
b---------------------------------|
g---------------------------------|
d-------(second time)-----2---2---|
a-------------------------2---2---|
E-------------------------0---0---|
                          .   .

Chorus-x2
Guitar 1
(those are elevens and twelves)
e--------------------------------------------------------------|
b--------------------------------------------------------------|
g-121212-----121212-----1212-----111111-----111111-----1111----|
d--------999--------999------99---------999--------999------99-|
a--------------------------------------------------------------|
E--------------------------------------------------------------|
Guitar 2
e--------------------------------------------------------------|
b-8-8-8-8-8-8-8-8-8-8-8-8-8-8-8--------------------------------|
g-9-9-9-9-9-9-9-9-9-9-9-9-9-9-9--4-4-4-4-4-4-4-4-4-4-4-4-4-4-4-|
d-9-9-9-9-9-9-9-9-9-9-9-9-9-9-9--5-5-5-5-5-5-5-5-5-5-5-5-5-5-5-|
a-7-7-7-7-7-7-7-7-7-7-7-7-7-7-7--5-5-5-5-5-5-5-5-5-5-5-5-5-5-5-|
E-0-0-0-0-0-0-0-0-0-0-0-0-0-0-0--3-3-3-3-3-3-3-3-3-3-3-3-3-3-3-|
Chorus Cont.
Guitar 1
e-----------------------------------------------------------------------|
b---------------------------------------1212121212121212----------------|
g--------121212--------121212-----1212--------------------1212-1111-----|
d-121212--------121212--------1212---------------------------------1212-|
a-----------------------------------------------------------------------|
E-----------------------------------------------------------------------|
Guitar 2
e--------------------------------------------------------------|
b-7-7-7-7-7-7-7-7-7-7-7-7-7-7-7--------------------------------|
g-7-7-7-7-7-7-7-7-7-7-7-7-7-7-7--5-5-5-5-5-5-5-5-5-5-5-5-5-5-5-|
d-7-7-7-7-7-7-7-7-7-7-7-7-7-7-7--5-5-5-5-5-5-5-5-5-5-5-5-5-5-5-|
a-5-5-5-5-5-5-5-5-5-5-5-5-5-5-5--3-3-3-3-3-3-3-3-3-3-3-3-3-3-3-|
E-5-5-5-5-5-5-5-5-5-5-5-5-5-5-5--------------------------------|

Post Chorus-x2
Guitar 1
e---------------------------------|
b-8-8-8---------------------------|
g-9-9-9---------------------------|
d-9-9-9-5-5-5-7-7-7-7-7-7-5-5-7-7-|
a-7-7-7-5-5-5-5-5-5-7-7-7-5-5-7-7-|
E-0-0-0-3-3-3-5-5-5-5-5-5-3-3-5-5-|
Guitar 2
e---------------------------------|
b---------------------------------|
g-4-4-4---------------------------|
d-2-2-2-5-5-5-7-7-7-7-7-7-5-5-7-7-|
a-2-2-2-5-5-5-5-5-5-7-7-7-5-5-7-7-|
E-0-0-0-3-3-3-5-5-5-5-5-5-3-3-5-5-|

Repeat Both Parts Of Verse
Repeat Pre Chorus

Bridge
(Only one guitar for first 2 measures)
e----------------------------------------------------------------|
b---------8-8-8-8---------8-8-8-8---------8-8-8-8----------------|
g---------9-9-9-9---------9-9-9-9---------9-9-9-9-9-9-9111111-12-|
d---------9-9-9-9---------9-9-9-9---------9-9-9-9-x-x-x-x-x-x--x-|
a-7-7-7-7---------7-7-7-7---------7-7-7-7---------7-7-7-9-9-9-10-|
E-0-0-0-0---------0-0-0-0---------0-0-0-0------------------------|
  . . . .         . . . .         . . . .
Then after the 2nd time play it like this
e----------------------------------------------------------------|
b---------8-8-8-8---------8-8-8-8---------8-8-8-8----------------|
g---------9-9-9-9---------9-9-9-9---------9-9-9-9----------------|
d---------9-9-9-9---------9-9-9-9---------9-9-9-9-5-5-5-5-7-7-7--|
a-7-7-7-7---------7-7-7-7---------7-7-7-7---------5-5-5-5-7-7-7--|
E-0-0-0-0---------0-0-0-0---------0-0-0-0---------3-3-3-3-5-5-5--|
  . . . .         . . . .         . . . .

End of bridge
e---
b-8/
g-9/
d-9/
a-7/
E-0/

Repeat Pre Chorus
Repeat Chorus
Repeat Post Chorus

Ending
Guitar 1
e---
b-8~
g-9~
d-9~
a-7~
E-0~
Guitar 2
e---
b---
g---
d-2~
a-2~
E-0~
            
Submit corrections

comments powered by Disqus
↑ Back to top | Zebrahead Tabs for Broadcast. Lyrics for acoustic guitar and electric guitar. Tablatures and chords are parodies/interpretations of the original songs. You may use it for private study, scholarship, research or language learning purposes only