» » »

Yuck, Get Away Tabs (ver.3)

Artists:  A B C D E F G H I J K L M N O P Q R S T U V W X Y Z # 

Get Away Tabs (ver.3)

Yuck Tabs
 Rating:
3.8/5 (5 votes)
Get Away lessons Tabs too difficult? Try these video lessons and learn fast
1
                Tuning: Drop D with capo on 2


All tab relative to capo = 0

(0:00)

   Amaj7     A5  F#m9          F#m Dmaj7     Dadd9   
E|-----------------|-----------------|-----------------|
B|-----------------|---------------0-|-0-0-0-3-3-3-3---|
G|-----------------|---------------0-|-0-0-0-0-0-0-0---| x 3
D|-4-4-4-4-4-5---4-|-4-4-4-4-4-5---x-|-x-x-x-x-x-x-x-4-|
A|-5-5-5-5-5-5---2-|-2-2-2-2-2-2---3-|-3-3-3-3-3-3-3-5-|
D|-5-5-5-5-5-5---2-|-2-2-2-2-2-2-----|---------------5-|

   Amaj7     A5  F#m9          F#m Dmaj7     Dadd9
E|-----------------|-----------------|-----------------|
B|-----------------|---------------0-|-0-0-0-3-3-3-3-3-|
G|-----------------|---------------0-|-0-0-0-0-0-0-0-0-|
D|-4-4-4-4-4-5---4-|-4-4-4-4-4-5---x-|-x-x-x-x-x-x-x-x-|
A|-5-5-5-5-5-5---2-|-2-2-2-2-2-2---3-|-3-3-3-3-3-3-3-3-|
D|-5-5-5-5-5-5---2-|-2-2-2-2-2-2-----|-----------------|

(0:23)

Guitar 1

   Bsus2         Dmaj7     Dadd9       Bm9           Dmaj7     Dadd9   
E|-----------------|-----------------|-----------------|-----------------|
B|-0-0-0-0-0-0---0-|-0-0-0-3-3-3-3-3-|-0-0-0-0-0-0---0-|-0-0-0-3-3-3-3-3-|
G|-x-x-x-x-x-x---0-|-0-0-0-0-0-0-0-0-|-x-x-x-x-x-x---0-|-0-0-0-0-0-0-0-0-|
D|-2-2-2-2-2-2---x-|-x-x-x-x-x-x-x-x-|-2-2-2-2-2-2---x-|-x-x-x-x-x-x-x-x-|
A|-0-0-0-0-0-0---3-|-3-3-3-3-3-3-3-3-|-0-0-0-0-0-0---3-|-3-3-3-3-3-3-3-3-|
E|-----------------|-----------------|-----------------|-----------------|

Guitar 2

E|-------------------------|--------------------|
B|-12b13r12-------15----12-|-12-12-12----12-12--|
G|----------14-12----12----|----------12--------|
D|-------------------------|--------------------|
A|-------------------------|--------------------|
D|-------------------------|--------------------|

E|-------------------------|--------------------|
B|-12b13r12-------15----12-|-12-12--------------|
G|----------14-12----12----|-------12h14p12-----|
D|-------------------------|----------------12\-|
A|-------------------------|--------------------|
D|-------------------------|--------------------|


(0:31) - No Guitar, Bass plays A F# D x2

(0:41) 

   A                F#m                D
E|-----------------|-----------------|-----------------|
B|-----------------|-----------------|-----------------|
G|-----------------|-----------------|-------4-------4-| x 2
D|-----4-5-----4-5-|-----4-5-----4-5-|-----4-------4---|
A|-----------------|-----------------|-----------------|
D|-5-5-----5-5-----|-5-5-----5-5-----|-5-5-----5-5-----|

(0:52)

Guitar 1

   Bsus2         Dmaj7     Dadd9       Bm9           Dmaj7     Dadd9   
E|-----------------|-----------------|-----------------|-----------------|
B|-0-0-0-0-0-0---0-|-0-0-0-3-3-3-3-3-|-0-0-0-0-0-0---0-|-0-0-0-3-3-3-3-3-|
G|-x-x-x-x-x-x---0-|-0-0-0-0-0-0-0-0-|-x-x-x-x-x-x---0-|-0-0-0-0-0-0-0-0-|
D|-2-2-2-2-2-2---x-|-x-x-x-x-x-x-x-x-|-2-2-2-2-2-2---x-|-x-x-x-x-x-x-x-x-|
A|-0-0-0-0-0-0---3-|-3-3-3-3-3-3-3-3-|-0-0-0-0-0-0---3-|-3-3-3-3-3-3-3-3-|
E|-----------------|-----------------|-----------------|-----------------|

   Bsus2         Dmaj7     Dadd9       Bm9           Dmaj7     Dadd9   
E|-----------------|-----------------|-----------------|-----------------|
B|-0-0-0-0-0-0---0-|-0-0-0-3-3-3-3-3-|-0-0-0-0-0-0---0-|-0-0-0-3-3-3-3-3-|
G|-x-x-x-x-x-x---0-|-0-0-0-0-0-0-0-0-|-x-x-x-x-x-x---0-|-0-0-0-0-0-0-0-0-|
D|-2-2-2-2-2-2---x-|-x-x-x-x-x-x-x-x-|-2-2-2-2-2-2---x-|-x-x-x-x-x-x-x-x-|
A|-0-0-0-0-0-0---3-|-3-3-3-3-3-3-3-3-|-0-0-0-0-0-0---3-|-3-3-3-3-3-3-3-3-|
E|-----------------|-----------------|-----------------|-----------------|

Guitar 2

E|-------------------------|--------------------|
B|-12b13r12-------15----12-|-12-12-12----12-12--|
G|----------14-12----12----|----------12--------| x 3
D|-------------------------|--------------------|
A|-------------------------|--------------------|
D|-------------------------|--------------------|

E|-------------------------|--------------------|
B|-12b13r12-------15----12-|-12-12--------------|
G|----------14-12----12----|-------12h14p12-----|
D|-------------------------|----------------12\-|
A|-------------------------|--------------------|
D|-------------------------|--------------------|

(1:06) 

Guitar feedback, Bass plays A F# D x2

(1:17)

Guitar 1
   A                F#m               D
E|-----------------|-----------------|-----------------|
B|-----------------|-----------------|-----------------|
G|-----------------|-----------------|-------4-------4-| x 2
D|-----4-5-----4-5-|-----4-5-----4-5-|-----4-------4---|
A|-----------------|-----------------|-----------------|
D|-5-5-----5-5-----|-5-5-----5-5-----|-5-5-----5-5-----|

(1:28)

Guitar 1

   Bsus2         Dmaj7     Dadd9       Bm9           Dmaj7     Dadd9   
E|-----------------|-----------------|-----------------|-----------------|
B|-0-0-0-0-0-0---0-|-0-0-0-3-3-3-3-3-|-0-0-0-0-0-0---0-|-0-0-0-3-3-3-3-3-|
G|-x-x-x-x-x-x---0-|-0-0-0-0-0-0-0-0-|-x-x-x-x-x-x---0-|-0-0-0-0-0-0-0-0-|
D|-2-2-2-2-2-2---x-|-x-x-x-x-x-x-x-x-|-2-2-2-2-2-2---x-|-x-x-x-x-x-x-x-x-|
A|-0-0-0-0-0-0---3-|-3-3-3-3-3-3-3-3-|-0-0-0-0-0-0---3-|-3-3-3-3-3-3-3-3-|
D|-----------------|-----------------|-----------------|-----------------|

   Bsus2         Dmaj7     Dadd9       Bm9           Dmaj7     Dadd9   
E|-----------------|-----------------|-----------------|-----------------|
B|-0-0-0-0-0-0---0-|-0-0-0-3-3-3-3-3-|-0-0-0-0-0-0---0-|-0-0-0-3-3-3-3-3-|
G|-x-x-x-x-x-x---0-|-0-0-0-0-0-0-0-0-|-x-x-x-x-x-x---0-|-0-0-0-0-0-0-0-0-|
D|-2-2-2-2-2-2---x-|-x-x-x-x-x-x-x-x-|-2-2-2-2-2-2---x-|-x-x-x-x-x-x-x-x-|
A|-0-0-0-0-0-0---3-|-3-3-3-3-3-3-3-3-|-0-0-0-0-0-0---3-|-3-3-3-3-3-3-3-3-|
D|-----------------|-----------------|-----------------|-----------------|

Guitar 2

E|-------------------------|--------------------|
B|-12b13r12-------15----12-|-12-12-12----12-12--|
G|----------14-12----12----|----------12--------| x 3
D|-------------------------|--------------------|
A|-------------------------|--------------------|
D|-------------------------|--------------------|

E|-------------------------|--------------------|
B|-12b13r12-------15----12-|-12-12--------------|
G|----------14-12----12----|-------12h14p12-----|
D|-------------------------|----------------12\-|
A|-------------------------|--------------------|
D|-------------------------|--------------------|

(1:42)

Guitar 1
  Amaj7          E           Esus4     Bm            D
E|-----------------|-----------------|-----------------|-----------------|
B|---------------7-|-7-7-7-7-8-8-7-7-|-1-1-1-1-1-1-1-5-|-5-5-5-5-5-5-5-5-|
G|-4-4-4-4-4-4-4-7-|-7-7-7-7-7-7-7-7-|-2-2-2-2-2-2-2-5-|-5-5-5-5-5-5-5-5-|
D|-5-5-5-5-5-5-5-7-|-7-7-7-7-7-7-7-7-|-2-2-2-2-2-2-2-5-|-5-5-5-5-5-5-5-5-|
A|-5-5-5-5-5-5-5-5-|-5-5-5-5-5-5-5-5-|-0-0-0-0-0-0-0-3-|-3-3-3-3-3-3-3-3-|
D|-5-5-5-5-5-5-5-0-|-0-0-0-0-0-0-0-0-|-----------------|-----------------|

   Bm            D
E|-----------------|-----------------|
B|-1-1-1-1-1-1-1-5-|-5-5-5-5-5-5-5-5-|
G|-2-2-2-2-2-2-2-5-|-5-5-5-5-5-5-5-5-| x 2
D|-2-2-2-2-2-2-2-5-|-5-5-5-5-5-5-5-5-|
A|-0-0-0-0-0-0-0-3-|-3-3-3-3-3-3-3-3-|
D|-----------------|-----------------|

Guitar 2

E|--------|--------|-------------------------|--------------------|
B|--------|--------|-12b13r12-------15----12-|-12-12-12----12-12--|
G|--------|--------|----------14-12----12----|----------12--------|
D|--------|--------|-------------------------|--------------------|
A|--------|--------|-------------------------|--------------------|
D|--------|--------|-------------------------|--------------------|

E|-------------------------|--------------------|
B|-12b13r12-------15----12-|-12-12-12----12-12--|   ]
G|----------14-12----12----|----------12--------|   |
D|-------------------------|--------------------|   |
A|-------------------------|--------------------|   |
D|-------------------------|--------------------|   |
                                                    |  x 2
E|-------------------------|--------------------|   |
B|-12b13r12-------15----12-|-12-12--------------|   |
G|----------14-12----12----|-------12h14p12-----|   |
D|-------------------------|----------------12\-|   ]
A|-------------------------|--------------------|
D|-------------------------|--------------------|

(2:04)

Guitar 1
E|-----------------------|----------------|
B|-----------------------|----------------|
G|-11-11-11-11-11-11-x-7-|7-7-7-7-7-7-x-13|
D|-------------------x---|------------x---|
A|-9--9--9--9--9--9--x-5-|5-5-5-5-5-5-x-11|
D|-------------------x---|------------x---|

E|-----------------------|----------------|
B|-----------------------|----------------|
G|-11-11-11-11-11-12-x-7-|7-7-7-7-7-7-x-13|
D|-------------------x---|------------x---|
A|-9--9--9--9--9--10-x-5-|5-5-5-5-5-5-x-11|
D|-------------------x---|------------x---|

E|-----------------------|----------------|
B|-----------------------|----------------|
G|-11-11-11-11-11-11-x-7-|7-7-7-7-7-7-x-4-|
D|-------------------x---|------------x---|
A|-9--9--9--9--9--9--x-5-|5-5-5-5-5-5-x-2-|
D|-------------------x---|------------x---|

E|------------------|------------------|
B|------------------|------------------|
G|-6-6-6-6-6b6b6b6b-|-7b7b7b7b7b7r6-6\-|
D|------------------|------------------|
A|-4-4-4-4-4-4-4-4--|-4-4-4-4-4-4-4-4\-|
D|------------------|------------------|

(2:33)

Guitar 1 

  Bsus2         Dmaj7     Dadd9       Bm9           Dmaj7     Dadd9   
E|-----------------|-----------------|-----------------|-----------------|
B|-0-0-0-0-0-0---0-|-0-0-0-3-3-3-3-3-|-0-0-0-0-0-0---0-|-0-0-0-3-3-3-3-3-|
G|-x-x-x-x-x-x---0-|-0-0-0-0-0-0-0-0-|-x-x-x-x-x-x---0-|-0-0-0-0-0-0-0-0-|
D|-2-2-2-2-2-2---x-|-x-x-x-x-x-x-x-x-|-2-2-2-2-2-2---x-|-x-x-x-x-x-x-x-x-|
A|-0-0-0-0-0-0---3-|-3-3-3-3-3-3-3-3-|-0-0-0-0-0-0---3-|-3-3-3-3-3-3-3-3-|
D|-----------------|-----------------|-----------------|-----------------|

   Bsus2         Dmaj7     Dadd9       Bm9           Dmaj7     Dadd9   
E|-----------------|-----------------|-----------------|-----------------|
B|-0-0-0-0-0-0---0-|-0-0-0-3-3-3-3-3-|-0-0-0-0-0-0---0-|-0-0-0-3-3-3-3-3-|
G|-x-x-x-x-x-x---0-|-0-0-0-0-0-0-0-0-|-x-x-x-x-x-x---0-|-0-0-0-0-0-0-0-0-|
D|-2-2-2-2-2-2---x-|-x-x-x-x-x-x-x-x-|-2-2-2-2-2-2---x-|-x-x-x-x-x-x-x-x-|
A|-0-0-0-0-0-0---3-|-3-3-3-3-3-3-3-3-|-0-0-0-0-0-0---3-|-3-3-3-3-3-3-3-3-|
D|-----------------|-----------------|-----------------|-----------------|

(2:42)

   Amaj7         E           Esus4     Bm            D
E|-----------------|-----------------|-----------------|-----------------|
B|---------------7-|-7-7-7-7-8-8-7-7-|-1-1-1-1-1-1-1-5-|-5-5-5-5-5-5-5-5-|
G|-4-4-4-4-4-4-4-7-|-7-7-7-7-7-7-7-7-|-2-2-2-2-2-2-2-5-|-5-5-5-5-5-5-5-5-|
D|-5-5-5-5-5-5-5-7-|-7-7-7-7-7-7-7-7-|-2-2-2-2-2-2-2-5-|-5-5-5-5-5-5-5-5-|
A|-5-5-5-5-5-5-5-5-|-5-5-5-5-5-5-5-5-|-0-0-0-0-0-0-0-3-|-3-3-3-3-3-3-3-3-|
D|-5-5-5-5-5-5-5-0-|-0-0-0-0-0-0-0-0-|-----------------|-----------------|

   Bm            D
E|-----------------|-----------------|
B|-1-1-1-1-1-1-1-5-|-5-5-5-5-5-5-5-5-|
G|-2-2-2-2-2-2-2-5-|-5-5-5-5-5-5-5-5-| x 4
D|-2-2-2-2-2-2-2-5-|-5-5-5-5-5-5-5-5-|
A|-0-0-0-0-0-0-0-3-|-3-3-3-3-3-3-3-3-|
D|-----------------|-----------------|

Guitar 2

E|--------|--------|-------------------------|--------------------|
B|--------|--------|-12b13r12-------15----12-|-12-12-12----12-12--|
G|--------|--------|----------14-12----12----|----------12--------|
D|--------|--------|-------------------------|--------------------|
A|--------|--------|-------------------------|--------------------|
D|--------|--------|-------------------------|--------------------|

E|-------------------------|--------------------|
B|-12b13r12-------15----12-|-12-12-12----12-12--|   ]
G|----------14-12----12----|----------12--------|   |
D|-------------------------|--------------------|   |
A|-------------------------|--------------------|   |
D|-------------------------|--------------------|   |
                                                    |  x 2
E|-------------------------|--------------------|   |
B|-12b13r12-------15----12-|-12-12--------------|   |
G|----------14-12----12----|-------12h14p12-----|   |
D|-------------------------|----------------12\-|   ]
A|-------------------------|--------------------|
D|-------------------------|--------------------|

E|----------------|--------------|----------------|-----------------------|
B|----------------|-----------12b|13r12-----15-15/|17p15-12h14p12p11---12b|
G|----------------|--------------|-----14-12------|-----------------12----|
D|----------------|--------------|----------------|-----------------------|
A|----------------|--------------|----------------|-----------------------|
D|----------------|--------------|----------------|-----------------------|

E|----------------|----------------|
B|13r12-----15-15/|17\15-15-15-15~-|
G|-----14-12------|----------------|
D|----------------|----------------|
A|----------------|----------------|
D|----------------|----------------|

E|----------------|------------------|--------------------|----------------|
B|----------------|---------------12b|13r12------15----12-|-12-12-12-12-15/|
G|12~-------------|---------12h14----|-----14-12----12----|----------------|
D|----------------|---12h14----------|--------------------|----------------|
A|----------------|------------------|--------------------|----------------|
D|----------------|------------------|--------------------|----------------|

E|----------------|----------------|
B|17p15-----------|----------------|
G|-----17p16-17p16|----------------|
D|----------------|17\12~----13~---|
A|----------------|----------------|
D|----------------|----------------|

Guitar 1
E|---------|
B|---------|
G|---------|
D|-2--2----|
A|-2--2----|
D|-2--2----|

Guitar 2
E|---------|
B|---------|
G|---------|
D|-14-14\--|
A|-14-14\--|
D|-14-14\--|                    

End !!!
            
Submit corrections

comments powered by Disqus
↑ Back to top | Yuck Tabs for Get Away. Lyrics for acoustic guitar and electric guitar. 1 Tablatures and chords are parodies/interpretations of the original songs. You may use it for private study, scholarship, research or language learning purposes only