» » »

Youth Brigade, Spies For Life Bass tabs (ver.1)

Artists:  A B C D E F G H I J K L M N O P Q R S T U V W X Y Z # 

Spies For Life Bass tabs (ver.1)

Youth Brigade Tabs
 Rating:
4/5 (4 votes)
Spies For Life lessons Tabs too difficult? Try these video lessons and learn fast
1
                BAND:  Youth Brigade

This is an awesome song and i noticed there was a really sh*tty and
incomplete tab of it flying around.
I reckon this is pretty accurate:

INTRO
G | ------------0------------------ | ------------0------------ |
D | ----1---1-1---1-----0---------- | ----1---1-1---1---------- |
A | 3-3---3---------1-1---1-----1-2 | 3-3---3---------r-2-2-2-2 |
E | ------------------------3-3---- | ------------------------- |
	      REPEAT X5			r=rest

VERSE: "I could be wrong....."
G | ----------------------------- | ---------------33-333-4-4-334 |
D | -------1-1-111--------------- | -------1-1-111--------------- |
A | 33-333---------11-111-------- | 33-333----------------------- |
E | ----------------------3-3-333 | ----------------------------- |

G | 55-555----------------------- | ----------------------------- |
D | -------1-1-111--------------- | -------1-1-111--------------- |
A | ---------------11-111-------- | 33-333---------11-111-2-2-222 |
E | ----------------------3-3-333 | ----------------------------- |

INTRO/BRIDGE: "Were on a mission....."
G | ------------0------------------ | ------------0-----------0-----0 |
D | ----1---1-1---1-----0---------- | ----1---1-1---1-----0-----3-1-- |
A | 3-3---3---------1-1---1-----1-2 | 3-3---3---------1-1---1-------- |
E | ------------------------3-3---- | ------------------------------- |

G | ------------0------------------ | ------------0------------ |
D | ----1---1-1---1-----0---------- | ----1---1-1---1---------- |
A | 3-3---3---------1-1---1-----1-2 | 3-3---3---------r-2-2-2-2 |
E | ------------------------3-3---- | ------------------------- |
					r=rest

VERSE: "Infiltrate blasphemous strongholds....."
G | ----------------------------- | ---------------33-333-4-4-334 |
D | -------1-1-111--------------- | -------1-1-111--------------- |
A | 33-333---------11-111-------- | 33-333----------------------- |
E | ----------------------3-3-333 | ----------------------------- |

G | 55-555----------------------- | --------------r-3-3-3-r-4-4-4 |
D | -------1-1-111--------------- | ------r-1-1-1---------------- |
A | ---------------11-111-------- | 3-3-3------------------------ |
E | ----------------------3-3-333 | ----------------------------- |
					r=rest

CHORUS: "Oh no....."
G | 00--4-3--7-8--3---------------------- |
D | -----------------1------------------- |
A | --------------------1----------1---22 |
E | -----------------------3---333---4--- |

G | 00--4-0--7-8--3--88-7--3-33--1111--44 |
D | ------------------------------------- |
A | ------------------------------------- |
E | ------------------------------------- |

VERSE: "Infiltrate blasphemous strongholds....."
G | 55-555----------------------- | ---------------33-333-4-4-334 |
D | -------1-1-111--------------- | -------1-1-111--------------- |
A | ---------------11-111-------- | 33-333----------------------- |
E | ----------------------3-3-333 | ----------------------------- |

G | 55-555----------------------- | --------------r-3-3-3-r-4-4-4 |
D | -------1-1-111--------------- | ------r-1-1-1---------------- |
A | ---------------11-111-------- | 3-3-3------------------------ |
E | ----------------------3-3-333 | ----------------------------- |
					r=rest
CHORUS:
G | 00--4-3--7-8--3---------------------- |
D | -----------------1------------------- |
A | --------------------1----------1---22 |
E | -----------------------3---333---4--- |

G | 00--4-0--7-8--3--88-7--3-33--1111--44 |
D | ------------------------------------- |
A | ------------------------------------- |
E | ------------------------------------- |

GUITAR SOLO:
G | 5---------------------------- | ----------------------------- |
D | ----------------------------- | ----------------------------- |
A | ----------------------------- | ----------------------------- |
E | ----------------------------- | ----------------------------- |
   	      rest for two repetitions of guitar riff

INTRO/BRIDGE: "We will take back....."
G | ------------0------------------ | ------------0-----------0-----0 |
D | ----1---1-1---1-----0---------- | ----1---1-1---1-----0-----3-1-- |
A | 3-3---3---------1-1---1-----1-2 | 3-3---3---------1-1---1-------- |
E | ------------------------3-3---- | ------------------------------- |

G | ------------0------------------ | ------------0------------ |
D | ----1---1-1---1-----0---------- | ----1---1-1---1---------- |
A | 3-3---3---------1-1---1-----1-2 | 3-3---3---------r-2-2-2-2 |
E | ------------------------3-3---- | ------------------------- |
					r=rest

VERSE: "We've had enough....."
G | ----------------------------- | ---------------33-333-4-4-334 |
D | -------1-1-111--------------- | -------1-1-111--------------- |
A | 33-333---------11-111-------- | 33-333----------------------- |
E | ----------------------3-3-333 | ----------------------------- |

G | 55-555----------------------- | --------------r-3-3-3-r-4-4-4 |
D | -------1-1-111--------------- | ------r-1-1-1---------------- |
A | ---------------11-111-------- | 3-3-3------------------------ |
E | ----------------------3-3-333 | ----------------------------- |
					r=rest

CHORUS: "Oh no....."
G | 00--4-3--7-8--3---------------------- |
D | -----------------1------------------- |
A | --------------------1----------1---22 |
E | -----------------------3---333---4--- |
	REPEAT X3

G | 00--4-0--7-8--3--88-7--3-33--1111--44 |
D | ------------------------------------- |
A | ------------------------------------- |
E | ------------------------------------- |

OUTRO:
G | 1111--44 | 1111--44---- |
D | -------- | ------------ |
A | -------- | ----------3~ |
E | -------- | ------------ |
		~= let it ring
            
Submit corrections

comments powered by Disqus
↑ Back to top | Youth Brigade Bass for Spies For Life. Lyrics for acoustic guitar and electric guitar. 1 Tablatures and chords are parodies/interpretations of the original songs. You may use it for private study, scholarship, research or language learning purposes only