» » »

Youth Brigade, Blown Away Bass tabs (ver.1)

Artists:  A B C D E F G H I J K L M N O P Q R S T U V W X Y Z # 

Blown Away Bass tabs (ver.1)

Youth Brigade Tabs
Rating:
0/5 (0 votes)
Blown Away lessons Tabs too difficult? Try these video lessons and learn fast
                YOUTH BRIGADE – BLOWN AWAY

 INTRO
G--------------------------------------------|
D--------------------------------------------|
A-0000-2222-3333-2222-0000-2222-3333-2222----|
E--------------------------------------------|

RIFF
G------------------------------------------|
D------------------------------------------|
A-00000000-22222222-33333333-2222222/14----|
E------------------------------------------|

CORO:
G----------------------------------------------------------|
D-------55555-77777-8-7-5-------55555-77777-8-7-5----------|
A-77777-------------------77777----------------------------|
E----------------------------------------------------------|

G----------------------------------------|
D----------------------------------------|
A-0---2----3----2----0---2----3-----5----|
E----------------------------------------|

SOLO:

G---9---9---9-11-9----12----12---9-11-9--------|
D-7---7---9--------10----10----9---------------|
A----------------------------------------------| (X3)
E----------------------------------------------|

G---9---9---9-11-9----12----12-12/161616161616-----------|
D-7---7---9--------10----10------------------------------|
A--------------------------------------------------------|
E--------------------------------------------------------|

G-14-1616161616-14-1616161616-16-14-12----12------------|
D--------------------------------------14----14-12-14---|
A-------------------------------------------------------|
E-------------------------------------------------------|

G-12-14-12-14-12-14-12-14-161616161616-19191919191919----|
D--------------------------------------------------------|
A--------------------------------------------------------|
E--------------------------------------------------------|


RIFF
G---------------------------------------------|
D---------------------------------------------|
A-0000000-2222222-3333333-22222222-0000000----|
E---------------------------------------------|

FIN
G--------------------------------|
D--8-7-5-8-7-5-8-7-5-------------|
A--------------------------------|
E--------------------------------|
            

comments powered by Disqus
↑ Back to top | Youth Brigade Bass for Blown Away. Lyrics for acoustic guitar and electric guitar. Tablatures and chords are parodies/interpretations of the original songs. You may use it for private study, scholarship, research or language learning purposes only