» » »

You Say Party We Say Die, Monster Tabs (ver.1)

Artists:  A B C D E F G H I J K L M N O P Q R S T U V W X Y Z # 

Monster Tabs (ver.1)

You Say Party We Say Die Tabs
Rating:
5/5 (1 vote)
Monster lessons Tabs too difficult? Try these video lessons and learn fast
                You Say Party! We Say Die!
Lose All Time
(Standard E tuning)



Intro
-----------------------------------------------|
-----------------------------------------------|
---10-10/11--11-11-11--12--(12)--~--(12)--12---|
-----------------------10--(10)--~--(10)--10---|
-----------------------------------------------|
-----------------------------------------------|

Intro
(Second One)

Everywhere is Frighting,
---------------|
---------------|
--11/12---12---|
----------10---|
---------------|
---------------|

There is something you are needing to find...

Chorus
(Guitar Part)

(First one)
----------------------------------------------|
----------------------------------------------|
--12--12--12-12-12-12--12-12-12--12-12-12-12--|
--10--10--10-10-10-10--10-10-10--10-10-10-10--|
----------------------------------------------|
----------------------------------------------|

-------------------------------------------|
-------------------------------------------|
-12-12-12-12-12-12---5--5-\-4-/-5-5--7-7---|
-10-10-10-10-10-10-------------------------|
-------------------------------------------|
-------------------------------------------|

(Second one)
-------------------------------------------------|
-------------------------------------------------|
--12--12--12-12-10--9---9--9--9--12-12-12-12-10--|
--10--10--10-10----10--10-10-10--10-10-10-10-----|
-------------------------------------------------|
-------------------------------------------------|

----------------------------------------------|
----------------------------------------------|
--9---9--9--9--9--9--9--5--5-\-4-/-5-5--7-7---|
-10--10-10-10-10-10-10------------------------|
----------------------------------------------|
----------------------------------------------|

Verse 1
  pm  pm  pm pm pm pm  pm pm pm
-------------------------------------|
-------------------------------------|
--12--12--12-12-12-12--12-12-12--12--|
--10--10--10-10-10-10--10-10-10--10--|
-------------------------------------|
-------------------------------------|

 pm pm pm pm pm pm
-------------------------------------------|
-------------------------------------------|
-12-12-12-12-12-12---5--5-\-4-/-5-5--7-7---|
-10-10-10-10-10-10-------------------------|
-------------------------------------------|
-------------------------------------------|

(second one)

  pm  pm  pm pm pm pm  pm pm pm
-------------------------------------------|
-------------------------------------------|
--12--12--12-12-12-12--12-12-12--9-12-9-9--|
--10--10--10-10-10-10--10-10-10------------|
-------------------------------------------|
-------------------------------------------|

--------------------------------------|
--------------------------------------|
-9-9-9-9-9-9----5--5-\-4-/-5-5--7-7---|
--------------------------------------|
--------------------------------------|
--------------------------------------|

Verse 2
Our Hearts...
------------------------------------------------------------------|
---------------------------5-5------------------------------------|
--5--(5)--5-5/4--5-5--7-7--------5---4-4--4-4-4---5---4-4--4-4-4--|
------------------------------------------------------------------|
------------------------------------------------------------------|
------------------------------------------------------------------|

-Chorus-

-Verse 1-

Verse 2
(there is a little added part here)
------------------------------------------------------------------|
---------------------------5-5------------------------------------|
--5--(5)--5-5/4--5-5--7-7--------5---4-4--4-4-4---5---4-4--4-4-4--|
------------------------------------------------------------------|
------------------------------------------------------------------|
------------------------------------------------------------------|

---------------|
---------------|
--2--0---2--4--|
---------------|
---------------|
---------------|

Verse 3
Oooh! Ah! Oooooooh!!!
--------------------------------------|
--------------------------------------|
---12-9-12-12-12--12-9-12-12---9--9---|
---10---10-10-10--10---10-10--10-10---|
--------------------------------------|
--------------------------------------|

----------------------------------------|
----------------------------------------|
-12-12-12-12-12-12--9--9--9--9-10-10----| (x6)
-10-10-10-10-10-10-10-10-10-10-10-10----|
----------------------------------------|
----------------------------------------|

Bridge(bass)

Tear Out...
-----------------------------|
-------------------------0---| (x2)
---3-------0---3-----0-------|
-------1----------1----------|

Outro
e|--------------------------------------------------------------
B|--------------------------5-5-5----------------------5-5-5-5--
G|--5--5--5-5-5-4-4-5-5-7-7--------5-4-~-4-4-4-5-5-7-7----------
D|--------------------------------------------------------------
A|--------------------------------------------------------------
E|--------------------------------------------------------------

--------------------------------------------------------
-5-5-5-5-5-5-5-5-6-6-6-6-6-6-6-6-7-7-7-8-8-8-8-8-8-8-8--
--------------------------------------------------------
--------------------------------------------------------
--------------------------------------------------------
--------------------------------------------------------

------------------------------------------------------
-9-9-10-10-11-11-12-12-----13-13\(12)-10-12-10-12-10--
------------------------------------------------------
------------------------------------------------------
------------------------------------------------------
------------------------------------------------------

--------------------------------------------------
--------------------------------------------------
-13-13\(12)-10-12-10-12-10---13-13\(12)-10-10-10--
--------------------------------------------------
--------------------------------------------------
--------------------------------------------------

-10-10-11-11-12-12-13-13------------------------------
---------------------------13-13\(12)-10-12-10-12-10--
------------------------------------------------------
------------------------------------------------------
------------------------------------------------------
------------------------------------------------------


---------------------------------------------------------------|
-13-13\(12)-10-12-10-12-10---13-13\(12)-10-12-10-12-10--(10)---|
---------------------------------------------------------------|
---------------------------------------------------------------|
---------------------------------------------------------------|
---------------------------------------------------------------|


(End)
thats it!, pretty easy!
            
Submit corrections

comments powered by Disqus
↑ Back to top | You Say Party We Say Die Tabs for Monster. Lyrics for acoustic guitar and electric guitar. Tablatures and chords are parodies/interpretations of the original songs. You may use it for private study, scholarship, research or language learning purposes only