» » »

You Say Party We Say Die, Monster Bass tabs (ver.1)

Artists:  A B C D E F G H I J K L M N O P Q R S T U V W X Y Z # 

Monster Bass tabs (ver.1)

You Say Party We Say Die Tabs
Rating:
0/5 (0 votes)
Monster lessons Tabs too difficult? Try these video lessons and learn fast
                You Say Party! We Say Die!
Lose All Time

Tuning: Standard

Intro (in the intro it is played on keyboard)
G|-----5-----5-----5--(5)--------------------------|
D|--7-----7-----7--------------5-----5-----5--(5)--|
A|-------------------------7------7-----7----------|
E|-------------------------------------------------|

---------------------------------------------|
-----2-----2-----2--(2)----3---3---4---5-----|
-3------3-----3----------5---5---6---7-------|
---------------------------------------------|

Chorus
G|-----5-----5-----5--(5)--------------------------|
D|--7-----7-----7--------------5-----5-----5--(5)--|
A|-------------------------7------7-----7----------|
E|-------------------------------------------------|

---------------------------------------------|
-----2-----2-----2--(2)----3---3---4---5-----|
-3------3-----3----------5---5---6---7-------|
---------------------------------------------|

This part of the chorus is played on the keyboard
This is how you play it on the bass
G|--12--12--12-12-9------12-12-12-12-12-12-9-------------------------|
D|------------------10-----------------------10--10--9-10-10-12-12---|
A|-------------------------------------------------------------------|
E|-------------------------------------------------------------------|

Verse
G|-----5-----5-----5--(5)--------------------------|
D|--7-----7-----7--------------5-----5-----5--(5)--|
A|-------------------------7------7-----7----------|
E|-------------------------------------------------|

---------------------------------------------|
-----2-----2-----2--(2)----3---3---4---5-----|
-3------3-----3----------5---5---6---7-------|
---------------------------------------------|

Bridge
Our hearts...
G|-----------------------------|
D|--10--(10)----------7--(7)---|
A|------------8--(8)-----------|
E|-----------------------------|

Chorus
G|-----5-----5-----5--(5)--------------------------|
D|--7-----7-----7--------------5-----5-----5--(5)--|
A|-------------------------7------7-----7----------|
E|-------------------------------------------------|

---------------------------------------------|
-----2-----2-----2--(2)----3---3---4---5-----|
-3------3-----3----------5---5---6---7-------|
---------------------------------------------|

Verse
G|-----5-----5-----5--(5)--------------------------|
D|--7-----7-----7--------------5-----5-----5--(5)--|
A|-------------------------7------7-----7----------|
E|-------------------------------------------------|

---------------------------------------------|
-----2-----2-----2--(2)----3---3---4---5-----|
-3------3-----3----------5---5---6---7-------|
---------------------------------------------|

Bridge
Tear out the strings...
G|-----------------------------|
D|--10--(10)----------7--(7)---|
A|------------8--(8)-----------|
E|-----------------------------|

Verse 2
Ooo! Ah! Ooo!
G|------------------------9---9---9---9---10----10----10----10------|
D|-7--7/10\9---5/7--(x2)----9---9---9---9----10----10----10----10---|
A|------------------------------------------------------------------|
E|------------------------------------------------------------------|
  Play this until the next bridge when
  the lead singer starts saying "Tear out...."

Bridge
Tear Out!
G|---------------------------|
D|---------------------------|
A|--3--(3)----------0--(0)---|
E|----------1--(1)-----------|

Bridge
G|---------------------------|
D|---------------------------|
A|--3--(3)----------0--(0)---|
E|----------1--(1)-----------|

Outro
G|------------------------------------------|
D|-------------------------------------0----|
A|--3--(3)----------0--(0)----3-----0-------|
E|----------1--(1)---------------1----------|
  Play this until song is over

Thats it! Have fun with it!
            

comments powered by Disqus
↑ Back to top | You Say Party We Say Die Bass for Monster. Lyrics for acoustic guitar and electric guitar. Tablatures and chords are parodies/interpretations of the original songs. You may use it for private study, scholarship, research or language learning purposes only