» » »

Nothing Left But Regret Tabs (ver.2)

Artists:  A B C D E F G H I J K L M N O P Q R S T U V W X Y Z # 

Nothing Left But Regret Tabs (ver.2)

Your Demise
Rating:
0/5 (0 votes)

Tabs too difficult? Try these video lessons and learn fast.
                

Tuning: Drop C#


For being such a simple song I found this one of the most frustrating songs I've ever tabbed lol! 
Cool song. Correct me if you spot any mistakes. Cheers.  

   Intro
D#|---------------------------------------------|
A#|---------------------------------------------|
F#|---------------------------------------------|
C#|--5-----5-5-6-----6-6-9-----9-9-9-9\8-8-8\6--|
G#|--3-333-3-3-4-444-4-4-7-777-7-7-7-7\6-6-6\4--|
C#|---------------------------------------------|
       ...       ...       ...

D#|------------------------------|
A#|------------------------------|
F#|------------------------------|
C#|--5-----5-5-6-----6-6-9~------|
G#|--3-333-3-3-4-444-4-4-7~------|
C#|------------------------------|
       ...       ...


   Verse
D#|---------------------------------------------------------------------------------|
A#|---------------------------------------------------------------------------------|
F#|---------------------------------------------------------------------------------|
C#|--5-----5-5-6-----6-6-9-----9-9-9-9\8-8-8\6-5-----5-5-6-----6-6-9-----9-9-66-88--|
G#|--3-333-3-3-4-444-4-4-7-777-7-7-7-7\6-6-6\4-3-333-3-3-4-444-4-4-7-777-7-7-44-66--|
C#|---------------------------------------------------------------------------------|
       ...       ...       ...                   ...       ...       ...


   Chorus
D#|------------------------------------------------------------------------|
A#|------------------------------------------------------------------------|
F#|------------------------------------------------------------------------|
C#|--5-5-5/6\5-6----9-999-9-9\8-8-8\6----5-5-5/6\5-6----9-999-9-9\6-6-6/8--|
G#|--3-3-3/4\3-4----7-777-7-7\6-6-6\4----3-3-3/4\3-4----7-777-7-7\4-4-4/6--|
C#|------------------------------------------------------------------------|


   Verse 2
D#|----------------------------------------|
A#|----------------------------------------|
F#|----------------------------------------|
C#|--55-565-5-88-8-66-6-99-9-88-8-66-6-88--|
G#|--33-343-3-66-6-44-4-77-7-66-6-44-4-66--|
C#|----------------------------------------|


   Chorus
D#|-----------------------------------------------------------------------------------|
A#|-----------------------------------------------------------------------------------|
F#|-----------------------------------------------------------------------------------|
C#|--5-5-5/6\5-6----9-999-9-9\8-8-8\6----5-5-5/6\5-6----9-999-9-9-6-6-6-8-8-8-3~------|
G#|--3-3-3/4\3-4----7-777-7-7\6-6-6\4----3-3-3/4\3-4----7-777-7-7-4-4-4-6-6-6-3~------|
C#|---------------------------------------------------------------------------3~------|


   Bridge
D#|-------------------------------------------------------------|
A#|-------------------------------------------------------------|
F#|-------------------------------------------------------------|
C#|--7p6-x-6p4-4-4-4-x-3~------4~------7~------7p6-6\4-4-6-6-6--|
G#|--7p6-x-6p4-4-4-4-x-3~------4~------7~------7p6-6\4-4-6-6-6--|
C#|--7p6-x-6p4-4-4-4-x-3~------4~------7~------7p6-6\4-4-6-6-6--|

D#|-------------------------------------------------------------|
A#|-------------------------------------------------------------|
F#|-------------------------------------------------------------|
C#|--3--3-333-3-3-3/4-4-444-4-4-4/7-7-777-7-7--7p6-x-6p4-4-4-4--|
G#|--3--3-333-3-3-3/4-4-444-4-4-4/7-7-777-7-7--7p6-x-6p4-4-4-4--|
C#|--3--3-333-3-3-3/4-4-444-4-4-4/7-7-777-7-7--7p6-x-6p4-4-4-4--|
        . ... . .     . ... . .     . ... . .

D#|-------------------------------------------------------------|
A#|-------------------------------------------------------------|
F#|-------------------------------------------------------------|
C#|--3--3-333-3-3-3/4-4-444-4-4-4/7-7-777-7-7--4-4-4-6-6-6-4-4--|
G#|--3--3-333-3-3-3/4-4-444-4-4-4/7-7-777-7-7--4-4-4-6-6-6-4-4--|
C#|--3--3-333-3-3-3/4-4-444-4-4-4/7-7-777-7-7--4-4-4-6-6-6-4-4--|
        . ... . .     . ... . .     . ... . .


   End On
D#|----------|
A#|----------|
F#|----------|
C#|--3~------|
G#|--3~------|
C#|--3~------|
            
Tabs too difficult? Try these video lessons and learn fast.


comments powered by Disqus
↑ Back to top | Tablatures and chords are parodies/interpretations of the original songs. You may use it for private study, scholarship, research or language learning purposes only