» » »

Winterlong Tabs (ver.1)

Artists:  A B C D E F G H I J K L M N O P Q R S T U V W X Y Z # 

Winterlong Tabs (ver.1)

Young Neil
Rating:
0/5 (0 votes)

Hard to play? Try these video lessons and learn fast.
                NEIL YOUNG - Winterlong

Surprised to find a version of this great song without the riff.
Anyway here it is:


            C                 Am               F                         
e-----------0------0----------0------0---------1--1-----1---
B-----------1--1-3---3-1-0-1--1--1-3---3-1-0-1-1-----2------
G--------0--0-----------------2----------------2----2-2-----
D--0 2 3----2-----------------2----------------3------------
A-3---------3-----------------0----------------3------------
E-----------0-----------------x----------------1------------

   G              F   C  C               C                              
e--3--------------1---0--0---------------0------------------
B--0--0-1-3-1-0---1---1--1---------------1------------------
G--0--------------2---0--0------------0--0------------------
D--0--------------3---2--2------0-2-3----2------------------
A--2--------------3---3--3----3----------3------------------
E--3--------------1---0--0---------------0------------------


C                       Am
I waited for you, Winterlong
                          F
You seem to be where I belong.
           G          F  C C  (First bar of riff)      
It's all illusion anyway.


C                               Am  
If things should ever turn out wrong
                             F
And all the love we have is gone,
            G            F   C C  (First bar of riff)
It won't be easy on that day.


F          E7
Waiting to follow
            Am        G        F
Through the dreamlight of your way
F         E7           A
Is not so easy for me now.


D                
Half the time has passed away
Bm                   G
Things we thought of yesterday
G              A 
Come back now, come back now.
D         (First bar of riff)
Oh oh oh 

PLAY FULL INTRO and end with:  C   C C  G    C   C C  G

F          E7
Waiting to follow
            Am      G          F
Through the dreamlight of your way
F          E7         A
Is not so easy for me now.

D 
Half the time has passed away
Bm                   G 
Things we thought of yesterday
G              A
Come back now, come back now.
D        (First bar of riff again)
Oh oh oh

C
I waited for you Winterlong
F            G
You seem to be where I belong.

Repeat to fade...   Hate it when songs fade. No Nirvana song ever 
faded out. Anyway...

That is all.
            
Hard to play? Try these video lessons and learn fast. | Correct




comments powered by Disqus
↑ Back to top | Tablatures and chords are parodies/interpretations of the original songs. You may use it for private study, scholarship, research or language learning purposes only