» » »

The Double E Tabs (ver.1)

Artists:  A B C D E F G H I J K L M N O P Q R S T U V W X Y Z # 

The Double E Tabs (ver.1)

Young Neil
Rating:
0/5 (0 votes)

Hard to play? Try these video lessons and learn fast.
                ok so here is double e (the right way)

intro
E------------------------------------------------------------------------
B------------------------------------------------------------------------
G------------------------------------------------------------------------
D---0h2-2--4 0-5-0-4--------0h2--4-0-5-4---0h2--4-0-5-4---0h2--4-0-5-4---
A---0-0-0--0-0 0-0-0--------0-0--0-0-0-0---0-0--0-0-0-0---0h0--0-0-0-0---
D------------------------------------------------------------------------

E-----------------------------------------------------------------2---
B-----------------------------------------------------------------3---
G-----------------2---4---6~~~~~~----------------2---4-5-4---0h2--2---
D------2----4--------------------------2----4-------------------------
A---------------------------------------------------------------------
D-------------------------------------------------------------------0-

E---------------------------------------------------------------------------
B---------------------------------------------------------------------------
G---------------------------------------------------------------------------
D--------------------------------  0h2---4--0-5-0-4---0h2---4--0-5-0-4------
A---0h3-3--5-3-----5----8--7--5----0h0---0--0-0-0-0---0h2---0--0-0-0-0------
D---0h3-3--3-3-----5----5--5--5---------------------------------------------

verse

E------------------------------------------------------------------------------------------------
B------------------------------------------------------------------------------------------------
G-------------------------------------------2--4-0-5-0-4-----------------------------------------
D---0h2--2---4--0-5-0 4---0h2--2---4--------0--0-0-0-0-0--------------------- 0h2-2---4-0-5-0-4--
A---0h0--0---0--0-0-0 0---0h0--0---0--0-3-4-------------0h3-3-5---5--8--7--5--0h2-0---0-0-0-0-0--
D-------------------------------------------------------0h3-3-3---5--5--5--5---------------------


bridge
         G      D                        G      D                       G     D                         G      D
E--------3------2------------------------3------2-----------------------3---- 2-----------------------  3------2-
B---------------3-------------------------------3---------------------------- 3------------------------------  3-
G---------------2-------------------------------2---------------------------- 2------------------------------  2-
D--------------------0h2---4--0-5-0-4----------------0h2---4--0-5-0-4----------------0h2---4--0-5-0-4------------
A--------5-----------0h0---0--0-0-0-0----5-----------0h0---0--0-0-0-0---5------------0h0---0--0-0-0-0---5--------
D--------5-------------------------------5------------------------------5-----------------------------  5--------


here is the little lick after

E---------10---------13b--13b--13b--------------------------------------
B----12--------12--------------------12/15b15b~~~~----------------------
G-----------------------------------------------------------------------
D-----------------------------------------------------------------------
A-----------------------------------------------------------------------
D-----------------------------------------------------------------------

then back to the the intro/rhythem riff, and there you have it... its simple
            
Hard to play? Try these video lessons and learn fast. | Correct




comments powered by Disqus
↑ Back to top | Tablatures and chords are parodies/interpretations of the original songs. You may use it for private study, scholarship, research or language learning purposes only