» » »

Scattered Tabs (ver.1)

Artists:  A B C D E F G H I J K L M N O P Q R S T U V W X Y Z # 

Scattered Tabs (ver.1)

Young Neil
Rating:
0/5 (0 votes)

Hard to play? Try these video lessons and learn fast.
                "Broken Arrow"


I have figured out most of the song, but I can't really tell what the 2nd 
guitar is always playing.  Feel free to send me your suggestions.

h = hammer on      
p = pull off	 
|| = repeat


INTRO:
					
|--------------------------------------||--------------------0----------------
------------------|
|--------------------------------------||--------------------0----------------
------------------|
|--------------------------------------||-------------------------------------
-------------0----|
|--5-h-7--5-h-7---9-p-7-----------||----------------------0--------5----------
-------5---|
|-----------------------------9-9---||---5-h-7-------------7----------3-h-5---
------5----|
|--------------------------------------||-----------------------7-------------
------------------|

There is a small change on the second time he plays this.  Play this as the 
verse (when he sings) but palm mute the opening riff.

          				
|----------------------------------------||--------------------0--------------
---------------------------|
|----------------------------------------||--------------------0--------------
---------------------------|
|----------------------------------------||-----------------------------------
---------------------0-----|
|--5-h-7--5-h-7---9-p-7-----------||-----------------------0--------5--4------
-----------5-----|
|-------------------------------9-9---||---5-h-7--------------7--------------3
-h-5---------5-----|
|----------------------------------------||------------------------7----------
---------------------------|


CHORUS

"When the music calls...."

        4X
|-------------|-------------------------------------------------------|
|-------------|-------------------------------------------------------|
|--------7--- |-------------------------------------------------------|
|---7---7----|-----5----2----------5------2-------5------------5--|
|---7---5----|-----5----2----------5------2-------5------------5--|
|---5---------|----3-----0----------3-----0-------5-------------5--|



"Like a commet..."*

|---------------------------------------------|----------------------------|
|---------------------------------------------|----------------------------|
|---------------------------------------------|----------------------------|
|-------------------------5-h-7----5-h-7--|--------------------5-h-7--|
|--3------5------0--------------------------|---3----2----0-------------|
|---------------------------------------------|----------------------------|

* The second time he plays this in the song is the opposite.

|--------------------------------------------|------------------------------|
|--------------------------------------------|------------------------------|
|--------------------------------------------|------------------------------|
|-------------------------5-h-7----5-h-7-|----------------------5-h-7--|
|--3------2------0-------------------------|---3-----5-----0-------------|
|--------------------------------------------|------------------------------|

Short solos at the end of the song  

|-----------------------------|
|---12----10----------------|
|-------------12---11---9--|
|-----------------------------|
|-----------------------------|
|-----------------------------|


|---------------------------------------|
|---------------------------------------|
|----------------12------12------------|
|-----12-h-14-----14------------12--|
|-----------------------------14-------|
|---------------------------------------|

Song ends with

|----------------|
|----------------|
|-------------7--|
|----7-7-5--|
|----5-5-5--|
|----5-5------|
            
Hard to play? Try these video lessons and learn fast. | Correct




comments powered by Disqus
↑ Back to top | Tablatures and chords are parodies/interpretations of the original songs. You may use it for private study, scholarship, research or language learning purposes only