» » »

Young Neil, Ride My Llama Chords (ver.1)

Artists:  A B C D E F G H I J K L M N O P Q R S T U V W X Y Z # 

Ride My Llama Chords (ver.1)

Young Neil Tabs
 Rating:
4/5 (4 votes)
Ride My Llama lessons Tabs too difficult? Try these video lessons and learn fast
                RIDE MY LLAMA- Neil Young

TUNING: D A D G B D, capo 2nd fret

D D11 D  D D11 D(b)  D D11 D  D D11 D(b)
    
  D          D11 D D11(2) D(2)      D        D11    D(b)  D11(2) D(2)
Remember the Alamo             when help was on the way   
     D      D11      D   D11(2) D(2)    D         D11    D(b)  D11(2) D(2)
It's better here and now              I feel that good today      
     D      D/C     D  D/C D       D    D/C       D/G   D11(2) D(2)
I'd like to take a walk       but not around the block
    D    D/C       D/F  D/C D    Bb
I really got some news         I met a man from Mars
AmaddD                CaddD                          D  (see riff at bottom)
He picked up all my guitars and played me traveling songs
   Bb                      G7
And when we got on ship  he brought out something for the trip
AmaddD                       D(2)        Bb           CaddD   D/G
He said "it's old but it's good"   like any other primitive would

G* G*        C(2)* D(3)* G* G*  G* G*
Aaaaah Ah Ah Ah Ah Ah    Aaaah  Aaaah
G* G*        C(2)* D(3)* G* G*  G* G*
Aaaaah Ah Ah Ah Ah Ah    Aaaah  Aaaah

D D11 D  D11(2) D(2)  D D11 D(b) D11(2) D(2)

D         D11     D     D11(2) D(2)               D11  D(b)  D11(2) D(2)
I'm gonna ride my llama             from Peru to Texarkana
   D    D11       D   D11(2) D(2)       D    D11     D(b)  D11(2) D(2)
I wanna ride him good            in my old neighborhood
    D      D11      D   D11(2) D(2)       D    D11     D(b)  D11(2) D(2)
I'm gonna ride him good            in my old neighborhood
    D      D11      D   D11(2) D(2)       D    D11     D(b)  D11(2) D(2)
I'm gonna ride him good            in my old neighborhood

Bb                       G7
When we got on ship  he brought out something for the trip
AmaddD                       D(2)        Bb           CaddD  D/G(2)
He said "it's old but it's good"   like any other primitive would

D/G(2)
Aaah


CHORDS:
   D  D11 D(b) D(2) D11(2) Bb  CaddD G7 AmaddD D/G(2) D/C D/F D/G  G C(2) D(3)
D -4---2--------7-----5-----3----0---0----0-----7------------------------------
B -3---1--------7-----5-----3----1---3----1-----7------3---3---3---------------
G -2---0---2----7-----5-----3----0---4----2-----7------2---2---2---0---0---0---
D -0---0---0----0-----0-----3----2---5----2-----7------0---3---0---0---2---4---
A -0---0---0----0-----0-----1----3---5----0-----5------3-------0---2---3---5---
D -0---0---0----0-----0-----x----x---5----x-----5--------------3---0-----------

RIFF (during "he picked up all my guitars...") (essential notes):
   AmaddD         CaddD           D
D ------------------------------------------
B --1-------------1---------------3---------
G --2-2-2p0---2-2-0---------------2---------
D --2-------3-----2---2-2-2-2h0---0---------
A ----------------3-3-----------3-----------
D ------------------------------------------

NOTES: slide back and forth between D and D11.  For chords marked *, hammer on 
the lower string fingerings.
            
Submit corrections

comments powered by Disqus
↑ Back to top | Young Neil Chords for Ride My Llama. Lyrics for acoustic guitar and electric guitar. Tablatures and chords are parodies/interpretations of the original songs. You may use it for private study, scholarship, research or language learning purposes only