» » »

Needle And The Dammage Done Tabs (ver.1)

Artists:  A B C D E F G H I J K L M N O P Q R S T U V W X Y Z # 

Needle And The Dammage Done Tabs (ver.1)

Young Neil
Rating:
0/5 (0 votes)

Tabs too difficult? Try these video lessons and learn fast.
                I got sick of seeing all the wrong versions of this song...this is how
neil plays it and it sounds the best!:)


E--------2--0------------------------0------------------------0---------------------0-----------
B-----3--------3-----3------3-----------3-----3-------3----------3-----3------3--------3-----3--
G-----------------2--------------0---------0--------------0---------0------------0--------0-----
D--0--------------------------------------------------------------------------------------------
A-----------------------3-------------------------2------------------------1--------------------
E-----------------------------------------------------------------------------------------------

E-----------------------------------------------------------------------------------------------
B-------1-------1-----1-----1-----1------1------1-----------------------------------------------
G------------------0-----2-----3-----2------0------------------------2--2--2--1-----------------
D----------0h2--------------------------------------2------------2---2--2--2--2-----------------
A---3---------------------------------------------------------2---------------------------------
E----------------------------------------------------------0------------------------------------

E-------2--0-----------------------0--------------------------0----------------------0----------
B----3--------3-----3--------3----------3-----3--------3----------3-----3-----3---------3-----3-
G----------------2--------------0----------0--------------0----------0-----------0---------0----
D--0--------------------------------------------------------------------------------------------
A-----------------------3-------------------------2-----------------------1---------------------
E-----------------------------------------------------------------------------------------------

Chords
                       Also the finger picking positions can be played as chords during the singing parts..
       C            F                      D          Cadd9     Em7  (unnamed chord)

E------0------------1---------------------2-------------0--------0-----------0---------------
B------1------------1---------------------3-------------3--------3-----------3---------------
G------0------------2---------------------2-------------0--------0-----------0---------------
D------2------------3---------------------x-------------0--------0-----------0---------------
A------3------------x---------------------x-------------3--------2-----------1---------------
E------0------------x---------------------x-------------0--------0-----------0---------------


Have fun with this!
            
Tabs too difficult? Try these video lessons and learn fast.


comments powered by Disqus
↑ Back to top | Tablatures and chords are parodies/interpretations of the original songs. You may use it for private study, scholarship, research or language learning purposes only