>
 >
My My Hey Hey Rns Version

My My Hey Hey Rns Version Guitar Tabs

Young Neil - My My Hey Hey Rns Version chords, tabs, tablatures, lyrics

Guitar lessons | Add/correct | Request | Top 50 tabs Artists:  A B C D E F G H I J K L M N O P Q R S T U V W X Y Z 0-9

My My Hey Hey Rns Version Guitar Tabs – Young Neil

CD, Sheet music, Poster

Do you like My My Hey Hey Rns Version? Share with your friends now
Tabs
e |-0-0-3-3-3-3-3-3--0-0-0--0-0-0------------|-0-0-3-3-3-3-3-3--0-0-0--0-0-0------------|
	B |-1-1-0-0-0-0-0-0--1-1-1--1-1-1------------|-1-1-0-0-0-0-0-0--1-1-1--1-1-1------------|
	G |-0-0-0-0-0-0-0-0--2-2-2--2-2-2------------|-0-0-0-0-0-0-0-0--2-2-2--2-2-2------------|
	D |-2-2-0-0-0-0-0-0--3-3-3--3-3-3------------|-2-2-0-0-0-0-0-0--3-3-3--3-3-3------------|
	A |-0-0-2-2-2-2-2-2--------------------------|-0-0-2-2-2-2-2-2--------------------------|
	E |-----3-3-3-3-3-3--------------------------|-----3-3-3-3-3-3--------------------------|

	    My  My, hey hey  			       Rock and roll is here to stay      
	    It's out of the blue and into the black    They give you this but you pay for that 
	    The king is gone but he's not forgotten    This is the story of a Johnny Rotten        
	    Hey Hey, my my                    	       Rock and roll can never die       

	e |-0-0-0-0-0-0--0-0-0--0-0-0-0-0-0-0--------|-0-0-0-0-0-0--1-1-1-1-1---------------------|
	B |-1-1-1-1-1-1--0-0-0--3-3-3-3-3-3-3--------|-1-1-1-1-1-1--1-1-1-1-1---------------------|
	G |-0-0-0-0-0-0--0-0-0--0-0-0-0-0-0-0--------|-2-2-2-2-2-2--2-2-2-2-2---------------------|
	D |-2-2-2-2-2-2--2-2-2--2-2-2-2-2-2-2--------|-2-2-2-2-2-2--3-3-3-3-3---------------------|
	A |-3-3-3-3-3-3--2-2-2--2-2-2-2-2-2-2--------|-0-0-0-0-0-0--3-3-3-3-3---------------------|
	E |------------------------------------------|--------------1-1-1-1-1---------------------|
	
    
	    It's better to burn out        		Than to fade away   
	    And once you're gone you can                never come back
	    It's better to burn out                     than it is to rust  
	    There's more to the picture                 Than meets the eye (or: rust never sleeps) 

	e |-0-0-3-3-3-3-3-3--0-0-0--0-0-0-----------------|
	B |-1-1-0-0-0-0-0-0--1-1-1--1-1-1-----------------|
	G |-0-0-0-0-0-0-0-0--2-2-2--2-2-2-----------------|
	D |-2-2-0-0-0-0-0-0--3-3-3--3-3-3-----------------|
	A |-0-0-2-2-2-2-2-2-------------------------------|
	E |-----3-3-3-3-3-3-------------------------------|
	                
	    My  My, hey hey     
	    When you're out of the blue and into the black      
	    The king is gone but he's not forgotten    
	    Hey Hey, my my    


	Transcribed in chords:                                      
                                            
	Am7 G       Fmaj7                         
	My  My, hey hey                             
	Am7       G              Fmaj7            
	Rock and roll is here to stay               
	C               Em       Em7                
	It's better to burn out                     
	Am             F                            
	Than to fade away                           
	Am7 G       Fmaj7                         
	My  My, hey hey                             
                                            
	Am7              G                Fmaj7   
	It's out of the blue and into the black     
	Am7            G                   Fmaj7  
	They give you this but you pay for that     
	C                Em Em7       Am         F  
	And once you're gone you can never come back
	Am7                     G                   
	When you're out of the blue                 
             Fmaj7                        
	And into the black                          
                                            
	Am7          G                 Fmaj7      
	The king is gone but he's not forgotten     
	Am7           G                Fmaj7      
	This is the story of a Johnny Rotten        
	C               Em Em7   Am            F    
	It's better to burn out than it is to rust  
	Am7          G                 Fmaj7      
	The king is gone but he's not forgotten     
                                            
	Am7  G      Fmaj7                         
	Hey Hey, my my                              
	Am7       G             Fmaj7             
	Rock and roll can never die                 
	C                    Em     Em7             
	There's more to the picture                 
	Am              F                           
	Than meets the eye                          
	Am7  G      Fmaj7                         
	Hey Hey, my my         

        ***************************************************************************
	***************************************************************************





Comments


Popular Young Neil tabs & chords
Dont Cry No Tears Chords
Harvest Chords
Ohio Chords
Powderfinger Chords
Sweet Joanie Chords
All Along The Watchtower Tabs
Cinnamon Girl 1 Tabs
Old Man Tabs
Sugar Tabs
The Needle And The Damage Done Lots Tabs


Song lyrics



↑ Back to top | Tablatures and chords are parodies/interpretations of the original songs. You may use it for private study, scholarship, research or language learning purposes only
© 2014 AZChords.com Contact us | Privacy policy | DMCA | Add/correct tabs | Request tabs | Top 50 tabs