» » »

Young Neil, Helpless Tabs (ver.1)

Artists:  A B C D E F G H I J K L M N O P Q R S T U V W X Y Z # 

Helpless Tabs (ver.1)

Young Neil Tabs
 Rating:
4/5 (4 votes)
Helpless lessons Tabs too difficult? Try these video lessons and learn fast
                ***************************************************************************	
	Helpless (live at the Last Waltz concert, 1976 with "The Band")
							              by Neil Young
	***************************************************************************


	NOTES: the solo is more a tab of verse notes, I guess

	CHORDS used in this song:

	        EADGBE			
	G       320003 
	F       133211		
	C       x32010		

	INTRO: C G F (2x)

	C           G               F
	There is a town in north Ontario,
	C      G       F
	With dream comfort memory to spare,
	C          G	   F 
	And in my mind I still need a place to go,
	C G         F    
	All my changes were there.


	Blue, blue windows behind the stars,
	Yellow moon on the rise,
	Big birds flying across the sky,
	Throwing shadows on our eyes.

	Leave us (spoken ?)

	Helpless, helpless, helpless
	Baby can you hear me now?
	The chains are locked and tied across the door,
	Baby, sing with me somehow.

	SOLO:

	This is an example how you can put a sort of solo in the song. I just tabbed out some
	verse notes. Maybe you like it. Play this very concentrating with a lot of tremolo.


		C       G             F               	       C       G             F
	E |-----------------------------------------------|-----------------------------------------|
	B |-----------------------------------------------|-----------------------------------------|
	G |--(2)/9~-9-9-7~7-7/9-9-(7)-7\5-5~2/5\2/5-5h7~--|--7/9~-9-9-7~7-7/9-9-(7)-7\5-5~--5---5h7-|
	D |-----------------------------------------------|-------------------------------7---7-----|
	A |-----------------------------------------------|-----------------------------------------|
	E |-----------------------------------------------|-----------------------------------------|

			 C       G             F                 C
	E |----------------------------------------------0--|
	B |----------------------------------------------1--|
	G |--(2)/9~-9-9-7~7-7/9-9-(7)-7\5-5~--5---5h7-5--0--|
	D |---------------------------------7---7--------2--|
	A |----------------------------------------------3--|
	E |-------------------------------------------------| with a C chord back to the song.

	Blue, blue windows behind the stars,
	Yellow moon on the rise,
	Big birds flying across the sky,
	Throwing shadows on our eyes.

	Leave us (spoken)

	Helpless, helpless, helpless.
	Helpless, helpless, helpless.
	Helpless, helpless, helpless.
	Helpless, helpless, helpless.

	***************************************************************************
	***************************************************************************
            
Submit corrections

comments powered by Disqus
↑ Back to top | Young Neil Tabs for Helpless. Lyrics for acoustic guitar and electric guitar. Tablatures and chords are parodies/interpretations of the original songs. You may use it for private study, scholarship, research or language learning purposes only