» » »

Young Neil, Everybody Knows This Is Nowhere Tabs (ver.1)

Artists:  A B C D E F G H I J K L M N O P Q R S T U V W X Y Z # 

Everybody Knows This Is Nowhere Tabs (ver.1)

Young Neil Tabs
Rating:
0/5 (0 votes)
Everybody Knows This Is Nowhere lessons Tabs too difficult? Try these video lessons and learn fast
                intro:

e|---------------------------------------------------------------------------|
B|---------------------------------------------------------------------------|
G|-3p2--0-----0-------0---0--3h--------0---2/4---2--0------------------------|
D|---------2-----0-3h-------------2------------------------------------------|
A|---------------------------------------------------------------------------|
E|---------------------------------------------------------------------------|

start:

e|--------3--3----------3--3------------0--0-------------0--0-------0--0----|
B|--------0--0----------0--0------------2--2-------------2--2-------2--2----|
G|--------0--0----------0--0------------0--0-------------0--0----0--0--0----|
D|0-------0--0------0---0--0-------2----0--0----------2--0--0--2----0--0----|
A|---------------2--------------3-----------------3-------------------------|
E|---3-----------------------------------------3--------------------------3-|

e|3--3--0-------------------------------------------------------------------|
B|0--0--3--2/3--3-----------------------------------------------------------|
G|---------3/4----4--4------------------------------------------------------|
D|--------------------------------------------------------------------------|
A|--------------------------------------------------------------------------|
E|--------------------------------------------------------------------------|

repeat once from start


then strum this:

C                     G                  Em                     A
ev-'ry-bod-y seems to won - der_______   what it's like down_   here._____

C                              Em7                              Am7
got - ta get a - way from this day - to day   run - nin'  a  -  round


strike Am7 5 times then sing along with this this:

  ev-ry-bod-y  knows  this is  no  where  la  la  la  la  la  la  la
e|3--3--3--3---2------0----0---0---0------0---0---0---0---0---0---0---------|
B|0--0--0--0---0------0----0---0---2------2---2---2---2---2---2---2---------|
G|0--0--0--0---0------0----0---0---0------0---0---0---0---0---0---0---------|
D|0--0--0--0---0------0----0---2---2------2---2---2---2---2---2---2---------|
A|2--2--2--2---2------2----2---3---3------3---3---3---3---3---3---3---------|
E|3--3--3--3---3------3----3---0---0------0---0---0---0---0---0---0---------|

and  ev-ry-bod-y ev-ry-bod-y  knows  la la la la la la la la la la
e|-----3--3--3--3--3--3--3--3---2------0--0--0--0--0--0--0--0--0--0----------|
B|-----0--0--0--0--0--0--0--0---0------0--0--0--2--2--2--2--2--2--2----------|
G|-----0--0--0--0--0--0--0--0---0------0--0--0--0--0--0--0--0--0--0----------|
D|-----0--0--0--0--0--0--0--0---0------0--0--2--2--2--2--2--2--2--2----------|
A|-----2--2--2--2--2--2--2--2---2------2--2--3--3--3--3--3--3--3--3----------|
E|-----3--3--3--3--3--3--3--3---3------3--3--0--0--0--0--0--0--0--0----------|

Ending:

e|---------------------------------------------------------------------------|
B|---------------------------------------------------------------------------|
G|---------------------------------------0--------0--0h2-----0---------------|
D|-------0-------0--0h2--0----0-----0h2------0h2-----------2-----------------|
A|--0h2-----0h2-------------2----3-------------------------------------------|
E|3--------------------------------------------------------------------------|

repeat intro once and there u have it everybody knows this is knowere. rate please

| /  slide up
| \  slide down
| h  hammer-on
| p  pull-off
| ~  vibrato
| +  harmonic
| x  Mute note
            

comments powered by Disqus
↑ Back to top | Young Neil Tabs for Everybody Knows This Is Nowhere. Lyrics for acoustic guitar and electric guitar. Tablatures and chords are parodies/interpretations of the original songs. You may use it for private study, scholarship, research or language learning purposes only