» » »

Cinnamon Girl Bass tabs (ver.1)

Artists:  A B C D E F G H I J K L M N O P Q R S T U V W X Y Z # 

Cinnamon Girl Bass tabs (ver.1)

Young Neil
Rating:
0/5 (0 votes)

Hard to play? Try these video lessons and learn fast.
                
Intro/Main Riff (x2)

G ---------------------------------------------------------
D ---------------------------------------------------------
A 3/5-5-5-5--5-5-5-3-2-0-----3/5-5-5-5--5-5-5-3-2-0--------
E -----------------------1-3------------------------1-1-3--

Verse

G -----------------------------------------------------------------
D -----------------------------------------------------------------
A -5-5-5-5-5-5-5-5-----------------3-3-3-3-3-3-3-3-----------------
E -----------------5-5-5-5-5-5-5-5-----------------3-3-3-3-3-3-3-3-

Bridge ("..with my cinnamon girl")

G ------------------------
D ------------------------
A ------3/5-5-5-5-3-2-3-0-
E 1-3-5-------------------

That's all. Enjoy!
            
Hard to play? Try these video lessons and learn fast. | Correct




comments powered by Disqus
↑ Back to top | Tablatures and chords are parodies/interpretations of the original songs. You may use it for private study, scholarship, research or language learning purposes only