» » »

Young Mc, Bust A Move Bass tabs (ver.2)

Artists:  A B C D E F G H I J K L M N O P Q R S T U V W X Y Z # 

Bust A Move Bass tabs (ver.2)

Young Mc Tabs
Rating:
0/5 (0 votes)
Bust A Move lessons Tabs too difficult? Try these video lessons and learn fast
                ------------------------------------------
Bust a Move By Young Mc (bassline by Flea)
------------------------------------------
            

This is the cool part of the bassline Flea wrote for 'Bust A Move'


    Chorus                                                              
G---------r-----------------------r----------------------|--------r-----
D---------e-----------------------e----------------------|--------e-----
A---------s-----------------------s-----3--x--5--x--6h7--|--------s-----
E---0--0--t--0--3--x--2--3--5--5--t--5-------------------|--0--0--t-----
                                                                        

                                                                        
G------------------------r--------------------||------------------------
D------------------------e--------------------||------------------------
A------------------------s-----3--x--2--2-----||------------------------
E---0--3--x--2--3--5--5--t--5--------------5--||------------------------
                                                                        



========================================================================
==                       TABLATURE EXPLANATION                        ==
========================================================================

----------                ----------                ----t---
----5h8--- Hammeron       ----(8)--- Ghost          ----6--- Tap
----------                ---------- Note           --------
----5p8--- Pulloff        ----------                --------

----------                ----------                -----p--
----5/8--- Slide Up       -----x---- Dead           -----7-- Pop
----------                ---------- Note           --s-----
----5\8--- Slide Down     ----------                --5----- Slap 

----------                ||------|| Repeat         --------
----5~~~-- Vibrato        ||*----*||                ---5^--- Bend
----------                ||*----*||                --------
----------                ||------||                --------
            
Submit corrections

comments powered by Disqus
↑ Back to top | Young Mc Bass for Bust A Move. Lyrics for acoustic guitar and electric guitar. Tablatures and chords are parodies/interpretations of the original songs. You may use it for private study, scholarship, research or language learning purposes only