» » »

Up All Night Tabs (ver.1)

Artists:  A B C D E F G H I J K L M N O P Q R S T U V W X Y Z # 

Up All Night Tabs (ver.1)

Young Knives
Rating:
1/5 (3 votes)

Hard to play? Try these video lessons and learn fast.
                - Young Knives
- Up All Night
- Superbundance

INTRO PT. 1

E--------------------------------------------------------------|
B----------------------------11111111111111111111111111111111--|
G----------------------------11111111111111111111111111111111--|
D-----------7777777777777777-11111111111111111111111111111111--|
A-----------7777777777777777--9-9-9-9-9-9-9-9-9-9-9-9-9-9-9-9--|
E-----------5555555555555555-----------------------------------|

INTRO PT. 2

E-------------------|-7--7-7--9--9-9--|
B-------------------|10-1010-12-1212--|
G-------------------|-9--9-9-12-1212--|   x4
D--7777777777777777-|-----------------|
A--7777777777777777-|-----------------|
E--5555555555555555-|-----------------|

VERSE

E-------------------------------------|
B-------------------------------------|
G-----9-9---------------9-9-----------|
D-7-7-----11-11-----7-7-----11-11-----|
A---------------9-9---------------9-9-|
E-------------------------------------|

E------------------------------------------------------------------|
B------------------------------------------------------------------|
G-----------9-9-11-11-----------9-9-11-11-(13)---------------------|
D-----11-11---------------11-11------------------------------------|
A-9-9-----------------9-9------------------------------------------|
E------------------------------------------------------------------|


Cant be arsed putting the full thing but you get the jist just play about with them and 
13. it then ends on the second chord in the intro.

CHORUS

E-----------------------------------------------------------------|
B-----------------------------------------------------------------|
G-11--9-99999999--------------------------------------------------|
D-11--9-99999999-9--7-77777777------------------------------------|
A--9--7-77777777-9--7-77777777------------------------------------|
E----------------7--5-55555555------------------------------------|

It then goes back to the Intro Pt. 2, see top           x2

Then:

The rest is pretty easy, I know this isnt a very good tab but gives u a general outline.

Adz x
            
Hard to play? Try these video lessons and learn fast. | Correct




comments powered by Disqus
↑ Back to top | Tablatures and chords are parodies/interpretations of the original songs. You may use it for private study, scholarship, research or language learning purposes only