» » »

Young Knives, Up All Night Bass tabs (ver.1)

Artists:  A B C D E F G H I J K L M N O P Q R S T U V W X Y Z # 

Up All Night Bass tabs (ver.1)

Young Knives Tabs
 Rating:
4.2/5 (5 votes)
Up All Night lessons Tabs too difficult? Try these video lessons and learn fast
1
                -----------------------------------------------------------------
-----------------------------------------------------------------


Tuning: EADG

Intro: (0:00) [They are 12's not 1 and 2]
G|---------------------------------------------------------------|
D|---------------------------------------------------------------|
A|-12121212121212121212121212121212-999999999999999--------------|
E|---------------------------------------------------------------|

G|---------------------------------------------------------------|
D|---------------------------------------------------------------|
A|-12121212121212121212121212121212------------------------------|
E|----------------------------------3--3--3--3--3--3--3--3-------|

Verse: I got dressed up... (0:15) [10's, 11's, 12's, 13's and 14's]
G|---------------------------------------------------------------------|
D|----13-14----13-14----13-14----13-14---10-11---10-11---10-11---10-11-|
A|-12--------12-------12-------12-------9-------9-------9-------9------|
E|---------------------------------------------------------------------|

G|---------------------------------------------------------------------|
D|----13-14----13-14----13-14----13-14---10-11---10-11---10-11---10-11-|
A|-12--------12-------12-------12-------9-------9-------9-------9------|
E|---------------------------------------------------------------------|

G|---------------------------------------------------------------------|
D|----13-14----13-14----13-14----13-14---10-11---10-11---10-11---10-11-|
A|-12--------12-------12-------12-------9-------9-------9-------9------|
E|---------------------------------------------------------------------|

G|---------------------------------------------------------------------|
D|----13-14----13-14----13-14----13-14---------------------------------|
A|-12--------12-------12-------12-------9------------------------------|
E|---------------------------------------------------------------------|

Chorus: 'Cause everybody looks famous... (0:39)
G|----------------------------------------------------------------|
D|---------------9-7-77777777-------------------------------------|
A|-9-7-77777777----------------9-7-777777-------------------------|
E|-----------------------------------------3--3--3--3--3--3--3--3-|

Verse 2: It's a showdown... (0:53)
G|----------------------------------14------------------------------------|
D|----13-14----13-14----13-14----13------10-11---10-11---10-11--11-10-----|
A|-12--------12-------12-------12-------9-------9-------9------9-------9/6|
E|------------------------------------------------------------------------|

G|----------------------------------14------------------------------------|
D|----13-14----13-14----13-14----13------10-11---10-11---10-11--11-10-----|
A|-12--------12-------12-------12-------9-------9-------9------9-------9/6|
E|------------------------------------------------------------------------|

G|----------------------------------14------------------------------------|
D|----13-14----13-14----13-14----13------10-11---10-11---10-11--11-10-----|
A|-12--------12-------12-------12-------9-------9-------9------9-------9/6|
E|------------------------------------------------------------------------|

G|----------------------------------14------------------------------------|
D|----13-14----13-14----13-14----13---------------------------------------|
A|-12--------12-------12-------12-------9---------------------------------|
E|------------------------------------------------------------------------|

Chorus: 'Cause everybody looks famous... (1:17)
G|---------------------------------------------------------------|
D|---------------9-7-77777777--------------9-7-77777777----------|
A|-9-7-77777777----------------9-7-777777------------------------|
E|---------------------------------------------------------------|

G|---------------------------------------------------------------|
D|---------------9-7-77777777--------------9-7-77777777----------|
A|-9-7-77777777----------------9-7-777777------------------------|
E|---------------------------------------------------------------|

Post-Chorus: Up All Night... (1:41)
G|---------------------------------------------------------------|
D|---------------------------------------------------------------|
A|-9-9-9-9-9-9-9-9-----------------------------------------------|
E|-----------------10-10-10-10-10-10-10--------------------------|

G|---------------------------------------------------------------|
D|---------------------------------------------------------------|
A|-9-9-9-9-9-9-9-9-----------------------------------------------|
E|-----------------10-10-10-10-10-10-10-10-----------------------|

G|---------------------------------------------------------------|
D|---------------------------------------------------------------|
A|-9-9-9-9-9-9-9-9-----------------------------------------------|
E|-----------------10-10-10-10-10-10-----------------------------|

Bridge: Rock bottom... (2:15)
G|---------------------------------------------------------------|
D|---------------------------------------------------------------|
A|-3~/7~/12~--9~--12~--9~----------------------------------------|
E|---------------------------------------------------------------|

Chorus: 'Cause everybody looks famous... (2:28)
G|---------------------------------------------------------------|
D|---------------9-7-77777777--------------9-7-77777777----------|
A|-9-7-77777777----------------9-7-777777------------------------|
E|---------------------------------------------------------------|

G|---------------------------------------------------------------|
D|---------------9-7-77777777------------------------------------|
A|-9-7-77777777----------------9-7-777777------------------------|
E|---------------------------------------------------------------|

Post-Chorus: Up All Night... (2:49)
G|---------------------------------------------------------------|
D|---------------------------------------------------------------|
A|-9-9-9-9-9-9----7-9--------------------------------------------|
E|-------------10------------------------------------------------|
            
Submit corrections

comments powered by Disqus
↑ Back to top | Young Knives Bass for Up All Night. Lyrics for acoustic guitar and electric guitar. 1 Tablatures and chords are parodies/interpretations of the original songs. You may use it for private study, scholarship, research or language learning purposes only