>
 >
Another Hollow Line 1

Another Hollow Line 1 Guitar Tabs

Young Knives - Another Hollow Line 1 chords, tabs, tablatures, lyrics

Guitar lessons | Add/correct | Request | Top 50 tabs Artists:  A B C D E F G H I J K L M N O P Q R S T U V W X Y Z 0-9

Another Hollow Line 1 Guitar Tabs – Young Knives

CD, Sheet music, Poster

Do you like Another Hollow Line 1? Share with your friends now
TabsTabs v2
-------------------------------------------------------------------------------
                 Another Hollow Line - Young Knives
-------------------------------------------------------------------------------

Great band, great tune. I’m open to any corrections. Cheers.

Intro

e|-------------------------------------------|
B|-------------------------------------------|
G|-------------------------------------------| x2
D|--------------------8----------------------|
A|-8-8-8-8-8------------7-7-7-7--------------|
E|-----------10-10-10-----------10-10-10-----|

Verse

e|-----------------------x--6-6-x-6--6-------|
B|-----8-8------8s10-10--x--6-6-x-6--6-------|
G|-10-------10-----------x--7-7-x-7--7-------| x10
D|-----------------------x--8-8-x-8--8-------|
A|--------------------------8----------------|
E|--------------------------6----------------|

Chorus

e|-------------------------------------------|
B|-----10-------10--------10-----------------|
G|--------10-------10------------------------| x3
D|-8s10-------10-------10-------8-8----------|
A|------------------------------8-8----------|
E|------------------------------6-6----------|

e|-6-6-6-------------3-----------------------|
B|-6-6-6-------------3-----------------------|
G|-7-7-7-------------3-----------------------|
D|-8-8-8-------------5-----------------------|
A|-8---8-------------5-----------------------|
E|-6---6-------------3-----------------------|

Bridge

   ‘who are you’
e|-5------3------2------------5------3------1------|
B|-6------4------3------------6------4------3------|
G|-5------3------2------------5------3------3------|
D|-------------------------------------------------|
A|-------------------------------------------------|
E|-------------------------------------------------|

Solo

e|--------------------------------------------------------------------------|
B|--------------------------------------------------------------------------|
G|--------------------------------------------7s9-----9-9-9-9-9s14-14--14---|
D|-7-7-7-7-7----------8---------------------------8----7-7-7---------12--12-|
A|--------------------------------------------------------------------------|
E|-----------10-10-10-----10-10-10-10-10-8-8-8------------------------------|

e|--------------------------------------------------------------------------|
B|--------------------------------------------------------------------------|
G|-14--14-14s9-9-9-9-9-9s15-15--15--15--15-15s9-9-9-9-9-9s14-14--14--14--14-|
D|---12---------7-7-7---------15--15--15---------7-7-7---------12--12--12---|
A|--------------------------------------------------------------------------|
E|--------------------------------------------------------------------------|

e|--------------------------------------|
B|--------------------------------------|
G|-14s9-9-9-9-9-9s15-15--15--15--15-----|
D|-------7-7-7---------15--15--15-------|
A|--------------------------------------|
E|--------------------------------------|


The song ends on:

e|-5-----|
B|-6-----|
G|-5-----|
D|-------|
A|-------|
E|-------|


| s  slide 





Comments


Popular Young Knives tabs & chords
Coastguard Bass Tabs
She's Attracted To Bass Tabs
The Decision Bass Tabs
Turn Tail Bass Tabs
Turn Tail Chords
She's Attracted To 1 Tabs
Terra Firma 1 Tabs
Turn Tail 1 Tabs
Walking On The Autobahn Tabs
Mummy Light The Fire Ukulele


Song lyrics



↑ Back to top | Tablatures and chords are parodies/interpretations of the original songs. You may use it for private study, scholarship, research or language learning purposes only
© 2014 AZChords.com Contact us | Privacy policy | DMCA | Add/correct tabs | Request tabs | Top 50 tabs