>
 >
Today Is The Day

Today Is The Day Guitar Tabs

Yo La Tengo - Today Is The Day chords, tabs, tablatures, lyrics

Guitar lessons | Add/correct | Request | Top 50 tabs Artists:  A B C D E F G H I J K L M N O P Q R S T U V W X Y Z 0-9

Today Is The Day Guitar Tabs – Yo La Tengo

CD, Sheet music, Poster

Do you like Today Is The Day? Share with your friends now
TabsTabs v2
-----------------------------------------------------------------------------
                             Today Is The Day Ė Yo La Tengo
-----------------------------------------------------------------------------

This sounds very correct to my ear and should be a vast improvement over the other
existing tab for this song that was posted. I hope that it proves helpful. Thanks for reading
the tab for this beautiful song!

Tuning: Standard (EADGBe)

Guitar Part 1:
      D                               A/Db
e|---------------------------------------------------------------------|
B|---------------------------------------------------------------------|
G|7///16----14--------------------7///16----14--------------------7///-|
D|---------------------------------------------------------------------|
A|---------------------------------------------------------------------|
E|---------------------------------------------------------------------|
  D/B                             D
e|----------------------------------------------------------------|
B|----------------------------------------------------------------|
G|16----14--------------------12--12-11-11------------------------|
D|----------------------------------------------------------------|
A|----------------------------------------------------------------|
E|----------------------------------------------------------------|
  D                               A/Db
e|----------------------------------------------------------------|
B|----------------------------------------------------------------|
G|6///////7-----------------------4///////6-----------------------|
D|----------------------------------------------------------------|
A|----------------------------------------------------------------|
E|----------------------------------------------------------------|
  D/B                             D
e|----------------------------------------------------------------|
B|----------------------------------------------------------------|
G|2///////4-------------------------------------------------------|
D|--------------------------------5///////7-----------------------|
A|----------------------------------------------------------------|
E|----------------------------------------------------------------|

Guitar Part 1*: (same as Guitar Part 1 except play the following in place of the second bar)
  D/B                             D
e|----------------------------------------------------------------|
B|----------------------------------------------------------------|
G|16----14--------------------7///16----14------------------------|
D|----------------------------------------------------------------|
A|----------------------------------------------------------------|
E|----------------------------------------------------------------|

Guitar Part 2:
  Em                              D
e|----------------------------------------------------------------|
B|----------------------------------------------------------------|
G|----------------------------------------------------------------|
D|2---2-2---2-2-2/5---5-5-4--2--0---------------4-----------------|
A|----------------------------------------------------------------|
E|----------------------------------------------------------------|
  Em                              D
e|----------------------------------------------------------------|
B|----------------------------------------------------------------|
G|----------------------------------------------------------------|
D|2---2-2---2-2-2/5---5-5-4--2--0---------------------------------|
A|----------------------------------------------------------------|
E|----------------------------------------------------------------|

Guitar Part 3:
  D                               A/Db
e|----------------------------------------------------------------|
B|----10----10----10----10----10------10----10----10----10----10--|
G|--11----11----11----11----11------11----11----11----11----11----|
D|12----12----12----12----12------11----11----11----11----11------|
A|----------------------------------------------------------------|
E|----------------------------------------------------------------|
  D/B                             A/Db
e|----------------------------------------------------------------|
B|----12----12----12----12----12------10----10----10----10----10--|
G|--11----11----11----11----11------11----11----11----11----11----|
D|12----12----12----12----12------11----11----11----11----11------|
A|----------------------------------------------------------------|
E|----------------------------------------------------------------|

Guitar Part 4:
  D                               A/Db
e|----------------------------------------------------------------|
B|----------------------------------------------------------------|
G|----------------------------------------------------------------|
D|------------7-------------------7-----------------------7-------|
A|------5-----------5---------5---------7-----------7---------7---|
E|5-----------------------5-------------------5-------------------|
  D/B                             A/Db
e|----------------------------------------------------------------|
B|----------------------------------------------------------------|
G|----------------------------------------------------------------|
D|------------7-------------------7-----------------------7-------|
A|------5-----------5---------5---------7-----------7---------7---|
E|7-----------------------7-------------------5-------------------|

Guitar Part 5:
  D                               A/Db
e|----------------------------------------------------------------|
B|----------------------------------------------------------------|
G|----------------------------------------------------------------|
D|------------7-------------------------------7-------------------|
A|------5-------------------------------7-------------------------|
E|5-------------------------------5-------------------------------|
  D/B                             D
e|----------------------------------------------------------------|
B|----------------------------------------------------------------|
G|----------------------------------------------------------------|
D|------------7---------------------------------------------------|
A|------5-------------------------------5-------------------------|
E|7-------------------------------5-----------5-------------------|

Guitar Part 6:
  F#m   Em              D         F#m   Em              D
e|----------------------------------------------------------------|
B|----------------------------------------------------------------|
G|11----9---------9-----7---------11----9---------9-----7---------|
D|11----9---------9-----7---------11----9---------9-----7---------|
A|----------------------------------------------------------------|
E|----------------------------------------------------------------|
  F#m   Em              D         A
e|----------------------------------------------------------------|
B|----------------------------------------------------------------|
G|11----9---------9-----7---------6-----6---------6-----6---------|
D|11----9---------9-----7---------7-----7---------7-----7---------|
A|----------------------------------------------------------------|
E|----------------------------------------------------------------|
  G                               D
e|----------------------------------------------------------------|
B|----------------------------------------------------------------|
G|4-----4---------4-----4---------7-----7---------7-----7---------|
D|5-----5---------5-----5---------7-----7---------7-----7---------|
A|----------------------------------------------------------------|
E|----------------------------------------------------------------|

Guitar Part 6*: (same as Guitar Part 6 except play the following in place of the second 
and third bars)
  F#m   Em              D         A
e|----------------------------------------------------------------|
B|----------------------------------------------------------------|
G|11----9---------9-----7---------6-----6---------9-----9---------|
D|11----9---------9-----7---------7-----7---------7-----7---------|
A|----------------------------------------------------------------|
E|----------------------------------------------------------------|
  G                               D
e|----------------------------------------------------------------|
B|----------------------------------------------------------------|
G|4-----4---------12----12--------7-----7---------7-----7---------|
D|5-----5---------12----12--------7-----7---------7-----7---------|
A|----------------------------------------------------------------|
E|----------------------------------------------------------------|

Guitar Part 7:
  F#m   Em              D         F#m   Em              D
e|----------------------------------------------------------------|
B|----------------------------------------------------------------|
G|----------------------------------------------------------------|
D|----------------------------------------------------------------|
A|----------5-7---------5-------------------5-7---------5---------|
E|5-----7---------5--7------------5-----7---------5--7------------|
  F#m   Em              D         A
e|----------------------------------------------------------------|
B|----------------------------------------------------------------|
G|----------------------------------------------------------------|
D|----------------------------------------------------------------|
A|----------5-7---------5-----5---9-----7-7-------------------5---|
E|5-----7---------5--7--------------------------------------------|
  G                               D
e|----------------------------------------------------------------|
B|----------------------------------------------------------------|
G|----------------------------------------------------------------|
D|----------------------------------------------------------------|
A|10----9-9-------------------------------------------------------|
E|----------------------------------------------------------------|

Song Structure:

Guitar Part 1
D                      A/Db
D/B                    D
D                      A/Db
D/B                    D

Guitar Part 2
Em                     D
Em                     D

Guitar Part 3 & Guitar Part 4
D                      A/Db
I followed you foolishly
D/B                    A/Db
You were at a smoky bar, you were out till three
D                      A/Db
Sat alone inside my car, it was nearly four
D/B                    A/Db
Couldnít wait for you all night so I broke the door
D                      A/Db
I was gonna spend the night, coulda been okay
D/B                    A/Db
We were gonna talk all night till I went away

Guitar Part 1 & Guitar Part 5
D                      A/Db
Remember how we used to say, ďcanít stay up lateĒ?
D/B                    D
A minute later and Iím older now, I canít stay awake
D                      A/Db
Iím driving by your parentís farm in the Chevrolet
D/B                    D
I remember that rusty car like it was yesterday

Guitar Part 2
Em                     D
Em                     D

Guitar Part 3 & Guitar Part 4
D                      A/Db
Saw my brother driving by the other day (OohÖ)
D/B                    A/Db
I wished that Iíd go out to him but he drove away (OohÖ)
D                      A/Db
Saw my sister standing there accepting blame (OohÖ)
D/B                    A/Db
And I thought of how nothiní ever feels the same (OohÖ)


D                      A/Db
Ooh... ooh...
D/B                    A/Db
Ooh... ooh...

Guitar Part 1* & Guitar Part 5
D                      A/Db
Ooh...
D/B                    D
D                      A/Db
D/B                    D

Guitar Part 2
Em                     D
Em                     D

Guitar Part 6 & Guitar Part 7
F#m     Em             D
Another day come and gone
F#m     Em             D
Donít think I can ever sing that song
F#m     Em             D
Little secrets we bring along
A
Iím taking my time
G
Trailing behind, I thought of you
D

Guitar Part 6* & Guitar Part 7
F#m     Em             D
Another day come and gone
F#m     Em             D
Donít think I can ever sing that song
F#m     Em             D
Little secrets we bring along
A
Today is the day
G
Today is the day I think of you
D

Guitar Part 6 & Guitar Part 7
F#m     Em             D
Another day come and gone
F#m     Em             D
Donít think I wanna sing that song
F#m     Em             D
Itís always trouble what makes you strong
A
Today is the day
G
Today is the day I think of you
D

Guitar Part 6 & Guitar Part 7
F#m     Em             D
F#m     Em             D
F#m     Em             D





Comments


Popular Yo La Tengo tabs & chords
Black Flowers Chords
Little Honda Chords
The Whole Of The Law 1 Chords
We're An American Band Chords
Daphnia Tabs
I Heard You Looking Tabs
Tiny Birds Tabs
Tom Courtenay Tabs
Almost True Ukulele
Straight Down To The Bitter End Ukulele


Song lyrics



↑ Back to top | Tablatures and chords are parodies/interpretations of the original songs. You may use it for private study, scholarship, research or language learning purposes only
© 2014 AZChords.com Contact us | Privacy policy | DMCA | Add/correct tabs | Request tabs | Top 50 tabs