>
 >
What Do You Want 1

What Do You Want 1 Guitar Tabs

Yngwie Malmsteen - What Do You Want 1 chords, tabs, tablatures, lyrics

Guitar lessons | Add/correct | Request | Top 50 tabs Artists:  A B C D E F G H I J K L M N O P Q R S T U V W X Y Z 0-9

What Do You Want 1 Guitar Tabs – Yngwie Malmsteen

CD, Sheet music, Poster

Do you like What Do You Want 1? Share with your friends now
TabsTabs v2

WHAT DO YOU WANT?
As recorded by Yngwie Malmsteen
(From the 1990 Album ECLIPSE)

	



Am
x 0 2 2 1 0
	
Asus2
x 0 2 2 0 0
	
F
1 x x 2 1 5
	
Fb5
1 0 3 2 0 1

F6
1 0 0 x 1 5
	
C
x 3 2 0 1 0
	
Csus4
x 3 3 0 1 1
	
G
3 2 0 0 0 3

Dm
x x 0 2 3 1
	
Bb/D
x x 0 3 3 1
	
Bbmaj7
x 1 0 2 3 1
	
Bb
x 1 0 3 3 1

Fsus2
1 x 3 0 1 3
	
Esus4
0 0 2 2 0 0
	
E
0 2 x 1 5 4
	
Dm/E
0 0 0 2 3 1

Gtr I (E A D G B E) - 'Lead'
Gtr II (E A D G B E) - 'Untitled'
Gtr III (E A D G B E) - 'Kybd'

 Intro
  Allegretto Q=110
  Am   Asus2
 4/4
  Gtr III
  H    H
  |    |
  /    /

  Gtr I
  H    Q  S T T X X X X X X    +T
|-----------------------5-7b8==(7)r|
|---------------------5------------|
|-------------------5--------------|
|-----------------7----------------|
|---------------7------------------|
|-----------5h8--------------------|


  Am     Asus2        F           FbF F6  C  CsuC4 G
   H      H            H       +E E E E   Q  Q  Q  Q
   |      |            |        | | | |   |  |  |  |
   /      /            /        / / / /   /  /  /  /

  +H     +E. S +Q     +E  E Q   H         W
|-(7)----(7)-5-(5)--|-(5)---------------|-------------|
|-------------------|-------------------|-------------|
|-------------------|-------------------|-------------|
|-------------------|-------------------|-------------|
|-------------------|-------------------|-------------|
|-------------------|-------------------|-------------|


  Am         Asus2  Am   Asus2      F            FbF   F6  C   CsusC   G
  H          H      H    H          H         +E E  E  E   Q   Q   Q   Q
  |          |      |    |          |          | |  |  |   |   |   |   |
  /          /      /    /          /          / /  /  /   /   /   /   /

  S S S S Q  H      H    Q  E S S   S S E  Q   Q    Q      E E E E E E E E
|-----------------|---------------|----------------------|-----------------|
|-----------------|---------------|----------------------|-----------------|
|-----------------|---------------|----------------------|-5---------------|
|-----------------|---------------|----------------------|-5---------------|
|-----------------|---------------|----------------12\---|-3-5-7-3---------|
|-5p3-5-----------|-----------0-3-|-5p3-5\---------------|---------7-5-3-0-|


  Gtrs I, III
  PM--------------------------------------------------------|
  S s e e e e e e s S   S s e e e e e e s S   S s e e e e e e e
|---------------------|---------------------|--------------------|
|---------------------|---------------------|--------------------|
|---------------------|---------------------|--------------------|
|---------------------|---------------------|--------------------|
|---------------------|---------------------|--------------------|
|-5p3-5-5-5-5-5-5-5-3-|-5p3-5-5-5-5-5-5-5-3-|-5p3-5-5-5-5-5-5-5--|


                    PM----------------------------------|     PM|
  E E E E E E E E   S s e e e e e e S S   S S S S e e e e S S S S
|-----------------|---------------------|-------------------------|
|-----------------|---------------------|-------------------------|
|-----------------|---------------------|-------------------------|
|-------5---------|---------------------|-------------------------|
|-3-5-7-3---------|---------------------|-----------------3p2-----|
|---------7-5-3-0-|-5p3-5-5-5-5-5-5-5-3-|-5-3-5p3-5-5-5-5-----5-3-|


                                         Verse
  PM------------|                         PM----------------|
  S S e e e e e e e   E E E E E E E E     S s e e e e e e s S
|-------------------|-----------------||----------------------|
|-------------------|-----------------||o---------------------|
|-------------------|-----------------||----------------------|
|-------------------|-----------------||----------------------|
|-------------------|-3-5-7-3-------2-||o---------------------|
|-5p3-5-5-5-5-5-5-5-|---------7-5-3-0-||--5p3-5-5-5-5-5-5-5-3-|


  PM------------|     PM------------------|
  S S S S e e e e S S S S   S s e e e e e e e   E E E E E E E E
|-------------------------|-------------------|------------------|
|-------------------------|-------------------|------------------|
|-------------------------|-------------------|------------------|
|-------------------------|-------------------|------------------|
|-----------------3p2-----|-------------------|-3-5-7-3----------|
|-5-3-5p3-5-5-5-5-----5-3-|-5p3-5-5-5-5-5-5-5-|---------7-5-3p0--|


  PM----------------------------------|     PM------------------|
  S s e e e e e e s S   S S S S e e e e S S S S   S s e e e e e e e
|---------------------|-------------------------|-------------------|
|---------------------|-------------------------|-------------------|
|---------------------|-------------------------|-------------------|
|---------------------|-------------------------|-------------------|
|---------------------|-----------------3p2-----|-------------------|
|-5p3-5-5-5-5-5-5-5-3-|-5-3-5p3-5-5-5-5-----5-3-|-5p3-5-5-5-5-5-5-5-|


                    Pre-Chorus
                     Dm               Bb/D
                     Gtr III
  W                  W                W
                     |                |
                     /                /

                                      ~
  E E E E E E E E    Q  E  E E Q  E   Q  Q   E Q   E
|-----------------||----------------|----------------|
|-----------------||-6-----5-5-6----|-6------6-6-----|
|-----------------||-7-------7-7----|-7------7-7-----|
|-----------------||-7-------7-7----|-8------8-8-----|
|-3-5-7-3---------||-5--5---------5-|----5-----------|
|---------7-5-3p0-||----------------|----------------|
|
|                    Gtr II
|                       ~~
| W                  Q  Q.     Q  E   Q  Q.    Q.
|-----------------||-----------5----|----------------|
|-----------------||-6---------6----|-6--------6-----|
|-----------------||-7---------7----|-7--------7-----|
|-----------------||-7---------7----|-8--------8-----|
|-----------------||-5--5---------5-|----5-----------|
|-----------------||----------------|----------------|


  Dm                Bb/D             Dm
  W                 W                W
  |                 |                |
  /                 /                /

  Q  Q.     Q   E   Q  Q   Q.    E   Q  Q  E Q   E
|-----------5-----|-6--------------|---------------|
|-6--6------6-----|-6--------------|-6--6----6-----|
|-7--7------7---7-|-7--x\----------|-7--7--7-7-----|
|-7--7----------7-|----x\--x\------|-7--7--7-------|
|-----------------|--------x\----5-|-5-----5-----5-|
|-----------------|----------------|-5-------------|
|
| Q  Q   E  E Q     Q  Q   Q   E E   Q  Q  E Q.
|-5--------10-----|-6--------------|---------5-----|
|-6--------10-----|-6--------------|----5--6-6-----|
|-7--------10-----|-7--x\----------|-7--7--7-7-----|
|-7---------------|-8--x\----------|-7--7--7-------|
|----5------------|------------5---|-5-----5-------|
|-----------------|--------------5-|---------------|


  Bb/D             Dm                   Bbmaj7  Bb
  W                 W                   H       H
  |                 |                   |       |
  /                 /                   /       /

  ~
  H     E  Q   E    S E. Q.      Q  E   E E E E E E E E
|-------------10-|----5---------------|-5---------------||
|-6-------11--11-|----6----------5--6-|-6-6-6-6-6-6-6-6-||
|-7-------10-----|----7-------------7-|-7-7-7-7-7-7-7-7-||
|-7-------12-----|----7---------------|-8-8-8-8-8-8-8-8-||
|-5--------------|-------5------------|-----------------||
|----------------|--------------------|-----------------||
|
|    ~~
| Q  Q  E  Q   E    H         E  Q  E   E E E E E E E E
|-6--------6-----|--------------10----|-----------------||
|-6--------6-----|-10--------10-10----|-----------------||
|-7--------7-----|-10--------10-------|-----------------||
|-8--------------|-12-----------------|-----------------||
|----5p=0--------|--------------------|-8-8-8-8-8-8-8-8-||
|----------------|--------------------|-6-6-6-6-6-6-6-6-||


 Chorus
  Am
  W                     +W
  |                      |
  /                      /

  Gtr I
  S S S S Q  Q  E S S    S S S S Q  Q  S S S S
|---------------------|------------------------|
|---------------------|------------------------|
|---------------------|------------------------|
|---------------------|------------------------|
|---------------------|----------------3p2-----|
|-5p3-5-----------5p3-|--5p3-5-------------5p3-|


  F                    C       G
  W                    H       H
  |                    |       |
  /                    /       /

  S S S S Q  Q   Q     E E E E E E E E
|--------------------|-----------------|
|--------------------|-----------------|
|--------------------|-----------------|
|--------------------|-----------------|
|---------------12\--|-3-5-7-3---------|
|-5p3-5--------------|---------7-5-3p0-|


  Am
  W                     +W
  |                      |
  /                      /

  S S S S Q  Q  E S S    S S S S Q  Q  S S S S
|---------------------|------------------------|
|---------------------|------------------------|
|---------------------|------------------------|
|---------------------|------------------------|
|---------------------|----------------3p2-----|
|-5p3-5-----------5p3-|--5p3-5-------------5p3-|


  F                    C       G
  W                    H       H
  |                    |       |
  /                    /       /

  S S S S Q  Q   Q     E E E E E E E E
|--------------------|------------------||
|--------------------|-----------------o||
|--------------------|------------------||
|--------------------|------------------||
|---------------12\--|-3-5-7-3---------o||
|-5p3-5--------------|---------7-5-3p0--||


  Fsus2   F       Esus4                               E
  H       H         H                                  H
  |       |         |                                  |
  /       /         /                                  /

  Q.   Q.    Q      Q.                         E      +H
|---------------|--------------------------------------------------||
|-1----1--------|---0--------------------------0------(0)----------||
|-3----2-----2--|---2--------------------------1------(1)----------||
|-3----3-----3--|---2--------------------------2------(2)----------||
|---------------|--------------------------------------------------||
|---------------|--------------------------------------------------||
|
|                 Gtr II
|                                                      ~~~
|                   |-------6-------|  |-----6------|
| W                 S   S  S  S  S  S  S  S S  S  S S  Q    +E   E
|---------------|-/13--12p10---------------------------------------||
|---------------|------------13-12-10------------------------------||
|---------------|---------------------13-10-9----------------------||
|---------------|-----------------------------12-10-9--------------||
|---------------|-------------------------------------11---(11)\---||
|---------------|--------------------------------------------------||


 Guitar Solo
  Dm
   W
   |
   /

   S     S     E   Q     Q          E           S     S
|-----------------------------------------------------------|
|-----------------------------------------------------------|
|-----------------------------------------------------------|
|-----------------------------------------------------------|
|--5p====3-----5--------------------------------------3-----|
|-----------------------------------------------5-----------|
|
|  T  T  T  T  E  +Q    +E.  S     +S   +T   T  T  T  T  T
|-17h18p17----17-(17)--(17)-----------------17h20p17-20p17--|
|----------20---------------20b22-(20)-(20)-----------------|
|-----------------------------------------------------------|
|-----------------------------------------------------------|
|-----------------------------------------------------------|
|-----------------------------------------------------------|


  Bb/D
    W
    |
    /

    S  S     E              Q          Q              S    S     S    S
|-----------------------------------------------------------------------|
|-----------------------------------------------------------------------|
|-----------------------------------------------------------------------|
|-----------------------------------------------------3p===2------------|
|---5p=3-----5---------------------------------------------------5p===3-|
|-----------------------------------------------------------------------|
|
|                           ~~~
|            |--3--|                   |-----6-----|  |------6------|
|  +S.    T  T  T  T  T  T  E.  +S     E  S  S  S  S  S  S    S  S  E
|-(17)---17h18p17----18p17-----------/18-17-18-15-18----18------18------|
|-----------------20-------20--(20)\-----------------18------17----15---|
|-----------------------------------------------------------------------|
|-----------------------------------------------------------------------|
|-----------------------------------------------------------------------|
|-----------------------------------------------------------------------|


  Dm
  W
  |
  /

  S  S     E        Q            Q                 E      S S
|-------------------------------------------------------------|
|-------------------------------------------------------------|
|-------------------------------------------------------------|
|-------------------------------------------------------------|
|-5p=3-----5------------------------------------------------3-|
|---------------------------------------------------------5---|
|
| S  T  T  T  s  T  S  T  T  S.T T T T  T T T T  T T T  S E
|---17p13-------13p10-----------------------------------------|
|---------15--------------------------------------------------|
|------------14-------10h12p10p9-7----------------------------|
|----------------------------------7h8-10p8p7-------------0---|
|---------------------------------------------8h10p8p7----0---|
|------------------------------------------------------10-----|


  Bb/D
  W
  |
  /

  S S  E  Q                    Q                 S    S     S   S
|---------------------------------------------------------------------|
|---------------------------------------------------------------------|
|---------------------------------------------------------------------|
|------------------------------------------------3p===2---------------|
|-5p3--5----------------------------------------------------5p==3-----|
|---------------------------------------------------------------------|
|
|      ~~
|         |--3--|              |------6-------|  |---3---|
| S S  E  S  S  S  T  T  T  T  S  S  S  S  S  S  S  S    S  s  +S
|---------------------------------------------------------------------|
|--------------------------------------------------15---17-18-(18)b20-|
|--------------------------------------12-14-15-17--------------------|
|-----------------------------12-14-15--------------------------------|
|-x-x-------------10-12-13-15-----------------------------------------|
|-----10-10-12-13-----------------------------------------------------|


  Dm
    W
    |
    /

    S  S  E            Q                  Q                  E        S    S
|-----------------------------------------------------------------------------|
|-----------------------------------------------------------------------------|
|-----------------------------------------------------------------------------|
|-----------------------------------------------------------------------------|
|---5p=3--5----------------------------------------------------------------3--|
|---------------------------------------------------------------------5-------|
|
|   ~~~~                             ~~~~
|         |--3--|      |--3---|           |-------6-------|  |--3--|
|  +E     S  S  S     +S   S  S     +E   +S   S  S  S  S  S  S  S  S  E
|--------15-15------------15-----------------15-------------------17-20b22----|
|-(18)---------18b20-(18)----18b20-(18)-(18)----18-15h18p15----18-------------|
|-----------------------------------------------------------19----------------|
|-----------------------------------------------------------------------------|
|-----------------------------------------------------------------------------|
|-----------------------------------------------------------------------------|


  Bb/D
    W
    |
    /

    S  S  E      Q               Q                       S     S     S     S
|--------------------------------------------------------------------------------|
|--------------------------------------------------------------------------------|
|--------------------------------------------------------------------------------|
|--------------------------------------------------------3p====2-----------------|
|---5p=3--5----------------------------------------------------------5p====3-----|
|--------------------------------------------------------------------------------|
|
|   ~~~~
|  +E     E     +S   E     T  T  T  T  T  T  T  T  T  T  T  T  T  T  T  T  T  T
|-(20)---20b22-(20)-20b22-15h18-17-15-13-15-17p13-12-13-15-12-10-12-13-10-10h12h=|
|--------------------------------------------------------------------------------|
|--------------------------------------------------------------------------------|
|--------------------------------------------------------------------------------|
|--------------------------------------------------------------------------------|
|--------------------------------------------------------------------------------|


  Dm
   W
   |
   /

   S     S     E        Q                       Q                     E         S    S
|---------------------------------------------------------------------------------------|
|---------------------------------------------------------------------------------------|
|---------------------------------------------------------------------------------------|
|---------------------------------------------------------------------------------------|
|--5p====3-----5---------------------------------------------------------------------3--|
|-------------------------------------------------------------------------------5-------|
|
|                                                                 ~~~~~~~
|  T  T  T  T  T  S.    T  T  T  T  T  T  S     T  T  T  T  T  T  S  +S   T  T  T T  S
|-13p12p10-12p10-------10-------10-------------10---------------------------------------|
|----------------13b15----13p10----13p10----------13p10---------------------------------|
|----------------------------------------12b14----------13p12p10-12-(12)-10h12p10s9-12S=|
|---------------------------------------------------------------------------------------|
|---------------------------------------------------------------------------------------|
|---------------------------------------------------------------------------------------|


  Bb/D
   W
   |
   /

   S S  E        Q                           Q           S S  S    S
|--------------------------------------------------------------------||
|--------------------------------------------------------------------||
|--------------------------------------------------------------------||
|--------------------------------------------------------3p2---------||
|--5p3--5-----------------------------------------------------5p===3-||
|--------------------------------------------------------------------||
|
|       |--3--|
|  S S  S  S  S  T  T  T  T  T  T  T  T     +S   E  +S   E    E
|---------------17h18p17p15----------------------------------22b24---||
|------------15-------------18p17-18p17b18r(17)-15-(15)\-------------||
|-14---15-17---------------------------------------------------------||
|----0---------------------------------------------------------------||
|--------------------------------------------------------------------||
|--------------------------------------------------------------------||


  E
    W
    |
    /

    S  S E  Q                    Q                        E        S  S
|--------------------------------------------------------------------------|
|--------------------------------------------------------------------------|
|--------------------------------------------------------------------------|
|--------------------------------------------------------------------------|
|---7p=5-7------------------------------------------------------------5----|
|------------------------------------------------------------------7-------|
|
|  +E    E  T  T  S  T  T  T  T  T  T  T  T  T  T  S     +S   +S   S  T  T
|-(22)-----17p16-17s13-13-17-15-13-12----15-13-12--------------------20p16-|
|-------------------------------------15----------15b17-(15)-(15)\---------|
|--------------------------------------------------------------------------|
|--------------------------------------------------------------------------|
|--------------------------------------------------------------------------|
|--------------------------------------------------------------------------|


  Dm/E
   W
   |
   /

   S  S E    Q                       Q          S  S     S  S
|-------------------------------------------------------------|
|-------------------------------------------------------------|
|-------------------------------------------------------------|
|-----------------------------------------------9p=6----------|
|--7p=5-7------------------------------------------------7p=5-|
|-------------------------------------------------------------|
|
|     ~~              ~~~~~~~                 ~~
|                                    |--3--|
|  S  E   S  T  T  T  T  +S.  +T     S  S  S  E S  T  T  E
|-----------17p14------------------/15-12---------------------|
|-18----------------------------------------------15p12-------|
|----19-----------17-16-(16)-(16)\--------14-13---------------|
|-------------------------------------------------------15\---|
|-------------------------------------------------------------|
|-------------------------------------------------------------|


  E
  W
  |
  /

  S S E          Q                       Q                        E S   S
|-----------------------------------------------------------------------------|
|-----------------------------------------------------------------------------|
|-----------------------------------------------------------------------------|
|-----------------------------------------------------------------------------|
|-7p5-7-----------------------------------------------------------------5-----|
|-------------------------------------------------------------------7---------|
|
|                                              |--3--|     |-3--|   |--3--|
| E   T  T  T T  T  T  T  T  T  T  T  T  T  T  T  T  T  s  T  T T E S S   S
|------------------------------10-12h13p12p10---------------------------------|
|---------------------10-12-13----------------13p12p10-12-12-10-9-------------|
|-------------9-10-12-----------------------------------------------9-9---9---|
|-----9-10-12-----------------------------------------------------------------|
|-----------------------------------------------------------------------------|
|-----------------------------------------------------------------------------|


  Dm/E
   W
   |
   /

   S S E          Q                       Q              S S    S    S
|----------------------------------------------------------------------|
|----------------------------------------------------------------------|
|----------------------------------------------------------------------|
|----------------------------------------------------------------------|
|--7p5-7-------------------------------------------------7p5----7p===5-|
|----------------------------------------------------------------------|
|
|  ~~~
|                                            |--3--|     |----3----|
|  E   T  T  T T  T  T  T  T  T  T  T  T  S  T  T  T  E  E    E    E
|-------------------------------10-12-12h13-12h13p12-10----------------|
|----------------------10-12-13-------------------------13p==12---10---|
|-10-----------9-10-12-------------------------------------------------|
|------9-10-12---------------------------------------------------------|
|----------------------------------------------------------------------|
|----------------------------------------------------------------------|


  E                                 Dm/E
  W                                 W
  |                                 |
  /                                 /

  S S    E    Q    Q   E   S    S   S S E  Q      Q    S   S    S S
|---------------------------------|----------------------------------|
|---------------------------------|----------------------------------|
|---------------------------------|----------------------------------|
|--------------------------0------|----------------------------------|
|-7p5----7----------------------5-|-7p5-7--------------7p==5----7p5--|
|---------------------------------|----------------------------------|
|
|               ~~~~~~                        ~~~~~~~
| |----3----|          |--3---|                        |--3---|
| E    E    E E E +Q   E E    E     Q     +S  E. +E. S S S    S S S
|---------------------------------|----------------------------------|
|-9---10---12---------------------|----------------------------------|
|-------------7-7-(7)--7-9---10---|----------------------------------|
|---------------------------------|-7-----(7)-6--(6)-----------------|
|---------------------------------|------------------7-8p7------7h8p=|
|---------------------------------|--------------------------10------|


  E
  W
  |
  /

  S S E  Q               Q                    E.             S
|-----------------------------------------------------------------|
|-----------------------------------------------------------------|
|-----------------------------------------------------------------|
|-----------------------------------------------------------------|
|-7p5-7------------------------------------------------------5----|
|-----------------------------------------------------------------|
|
| ~~
|        |-----6------|
| Q      S S  S  S S  S  S  T  T  T  T  T  T  S  T  T  T  T  S
|--------------------------12p10-------------13p12p10-------22b24-|
|--------------------------------13p12p10-------------13p10-------|
|------------------9-10h13----------------13----------------------|
|----------9-10-12------------------------------------------------|
|-7-----12--------------------------------------------------------|
|-----------------------------------------------------------------|


  Dm/E                                              Am
    W                                                W
    |                                                |
    /                                                /

    S  S E   Q     Q       E            T  T   S     W
|-------------------------------------------------|----------------------------------|
|-------------------------------------------------|----------------------------------|
|-------------------------------------------------|----------------------------------|
|---------------------------------------7p=6------|--7-------------------------------|
|---7p=5-7-----------------5-------------------7--|----------------------------------|
|-------------------------------------------------|----------------------------------|
|
|            ~~~~~~~~~                                         ~~~~~~~~~
|                                                                          |--3--|
|  +Q       +Q    +E.  S  +S   S       +S     +S     E  S  S  +Q    +E. S  E  E  E
|-(22)-----(22)--(22)-19-(19)-19pb20==(19)r==(19)-|-19p17-17-(17)--(17)---17---------|
|-------------------------------------------------|--------------------------17------|
|-------------------------------------------------|-----------------------------17\--|
|-------------------------------------------------|----------------------------------|
|-------------------------------------------------|----------------------------------|
|-------------------------------------------------|----------------------------------|


  Am
    W
    |
    /

   +W
|------------------------------10-12h13p12p10----------------------------|
|---------------------10-12-13----------------13p12p10-------------------|
|------------------------------------------------------12p10p=9----------|
|--(7)----------------------------------------------------------12p10p=9-|
|------------------------------------------------------------------------|
|------------------------------------------------------------------------|
|   H                  T  T  T  T  T  T  T  T  T  T  T  T  T  T  T  T  T
|                                  |--3--|
|
|            ~~~
|                                  |--3--|
|   E  S  S  E.  +S    T  T  T  T  T  T  T  T  T  T  T  T  T  T  T  T  T
|------------------------------13-15h17p15p13----------------------------|
|---------------------13-15-17----------------17p15p13-------------------|
|-/16h17p16--------------------------------------------16p14p12----------|
|-----------19--(19)\-------------------------------------------15p14p12-|
|------------------------------------------------------------------------|
|------------------------------------------------------------------------|


  F                      C       G
   W                     H       H
   |                     |       |
   /                     /       /

   S  E.   Q   Q   Q     E E E E E E E E
|----------------------|-----------------||
|----------------------|-----------------||
|----------------------|-----------------||
|--7\------------------|-----------------||
|-12\-------------12\--|-3-5-7-3---------||
|----------------------|---------7-5-3p0-||
|  S  E.   H.
|
|  E.    S Q   H         W
|----------------------|-----------------||
|----------------------|-----------------||
|----------------------|-----------------||
|----------------------|-----------------||
|-13\------------------|-----------------||
|----------------------|-----------------||


    Am
    W                     +W
    |                      |
    /                      /

    S S S S Q  Q  E S S    S S S S Q  Q  S S S S
||----------------------|------------------------|
||o---------------------|------------------------|
||----------------------|------------------------|
||----------------------|------------------------|
||o---------------------|----------------3p2-----|
||--5p3-5-----------5p3-|--5p3-5-------------5p3-|


  F                    C       G
  W                    H       H
  |                    |       |
  /                    /       /

  S S S S Q  Q   Q     E E E E E E E E
|--------------------|-------------------|
|--------------------|-------------------|
|--------------------|-------------------|
|--------------------|-------------------|
|---------------12\--|-3-5-7-3-----------|
|-5p3-5--------------|---------7-5-3p0---|


  Am
  W                     +W
  |                      |
  /                      /

  S S S S Q  Q  E S S    S S S S Q  Q  S S S S
|---------------------|------------------------|
|---------------------|------------------------|
|---------------------|------------------------|
|---------------------|------------------------|
|---------------------|----------------3p2-----|
|-5p3-5-----------5p3-|--5p3-5-------------5p3-|


  F                    C       G
  W                    H       H
  |                    |       |
  /                    /       /

  S S S S Q  Q   Q     E E E E E E E E  4x
|--------------------|------------------||
|--------------------|-----------------o||
|--------------------|------------------||
|--------------------|------------------||
|---------------12\--|-3-5-7-3---------o||
|-5p3-5--------------|---------7-5-3p0--||



Duration Legend
---------------
W - whole; H - half; Q - quarter; E - 8th; S - 16th; T - 32nd; X - 64th; a - acciaccatura
+ - note tied to previous; . - note dotted; .. - note double dotted
Uncapitalized letters represent notes that are staccato (1/2 duration)
Irregular groupings are notated above the duration line
Duration letters will always appear directly above the note/fret number it represents the
duration for.  Duration letters with no fret number below them represent rests.  Multi-
bar rests are notated in the form Wxn, where n is the number of bars to rest for.  Low
melody durations appear below the staff

Tablature Legend
----------------
 h   - hammer-on
 p   - pull-off
 b   - bend
 pb  - pre-bend
 r   - bend release (if no number after the r, then release immediately)
 /\  - slide into or out of (from/to "nowhere")
 s   - legato slide
 S   - shift slide
 - natural harmonic
[n]  - artificial harmonic
n(n) - tapped harmonic
 ~   - vibrato
 tr  - trill
 T   - tap
 TP  - trem. picking
 PM  - palm muting
\n/  - tremolo bar dip; n = amount to dip
 \n  - tremolo bar down
 n/  - tremolo bar up
/n\  - tremolo bar inverted dip
 =   - hold bend; also acts as connecting device for hammers/pulls
 <> - volume swell (louder/softer)
 x   - on rhythm slash represents muted slash
 o   - on rhythm slash represents single note slash

Misc Legend
-----------
 |  - bar
||  - double bar
||o - repeat start
o|| - repeat end
*|  - double bar (ending)
 :  - bar (freetime)
 $  - Segno
 &  - Coda
Tempo markers -  = BPM(8/16=s8/s16), where s8 = swing 8ths, s16 = swing 16ths





Comments


Popular Yngwie Malmsteen tabs & chords
Bite The Bullet Tabs
Black Star Tabs
Braveheart Tabs
Carry On My Wayward Son Tabs
Crystal Ball 1 Tabs
Presto Vivace Tabs
Save Our Love Tabs
Save Our Love 1 Tabs
Soldier Without Faith 1 Tabs
Save Out Love Ukulele


Song lyrics



↑ Back to top | Tablatures and chords are parodies/interpretations of the original songs. You may use it for private study, scholarship, research or language learning purposes only
© 2014 AZChords.com Contact us | Privacy policy | DMCA | Add/correct tabs | Request tabs | Top 50 tabs