>
 >
The Seventh Sign 1

The Seventh Sign 1 Guitar Tabs

Yngwie Malmsteen - The Seventh Sign 1 chords, tabs, tablatures, lyrics

Guitar lessons | Add/correct | Request | Top 50 tabs Artists:  A B C D E F G H I J K L M N O P Q R S T U V W X Y Z 0-9

The Seventh Sign 1 Guitar Tabs – Yngwie Malmsteen

CD, Sheet music, Poster

Do you like The Seventh Sign 1? Share with your friends now
TabsTabs v2

THE SEVENTH SIGN
As recorded by Yngwie Malmsteen
(From the 1994 Album THE SEVENTH SIGN)

        

Words and Music by Yngwie Malmsteen

Gtr I (Eb Ab Db Gb Bb Eb) - 'Acoustic Guitar I - Yngwie Malmsteen'
Gtr II (Eb Ab Db Gb Bb Eb) - 'Acoustic Guitar II - Yngwie Malmsteen'
Gtr III (Eb Ab Db Gb Bb Eb) - 'Rhythm Guitar - Yngwie Malmsteen'
Gtr IV (Eb Ab Db Gb Bb Eb) - 'Lead Guitar - Yngwie Malmsteen'

   Intro
    Moderately Fast Rock Q=138                             1.
    (Em)               (B)                (Em)             (B)
   4/4
    Gtr I
    E E E E E E  E E    E E E E E E E E   H    +E  E E E   Q.   E E E E E
||----7-5-7-3-7----7-|----7---7---7---7-|-3----(3)-7-5-3-|------------------||
||o-5------------7---|--5---4---5---7---|----------------|-7----5-4-5-7-4--o||
||-------------------|------------------|----------------|------------------||
||-------------------|------------------|----------------|------------------||
||o------------------|------------------|----------------|-----------------o||
||-------------------|------------------|----------------|------------------||
|
|   Gtr II
|   E E E E E E  E E    E E E E E E E E   H    +E  E E E   W
||-------------------|------------------|----------------|------------------||
||o-5-0-7-0-8-0-10-0-|-12-0-7-0-8-0-4-0-|-5----(5)-8-7-5-|-4---------------o||
||-------------------|------------------|----------------|------------------||
||-------------------|------------------|----------------|------------------||
||o------------------|------------------|----------------|-----------------o||
||-------------------|------------------|----------------|------------------||


  2.
  (B)              (Am)
  H    E E E E      E  E  E  E E  E  E  E
|------4-5-7-4-||-----12-10-12-8-12----12-|
|-7------------||o-10---------------12----|
|--------------||-------------------------|
|--------------||-------------------------|
|--------------||o------------------------|
|--------------||-------------------------|
|
| W                 E  E  E  E E  E  E  E
|--------------||---5--0--7--0-8--0-10--0-|
|-4------------||o------------------------|
|--------------||-------------------------|
|--------------||-------------------------|
|--------------||o------------------------|
|--------------||-------------------------|


  (E)                      (Am)
   E  E E  E  E  E  E  E   H    +E   E  E E
|----12---12----12----12-|-8----(8)-12-10-8-|
|-10----9----10----12----|------------------|
|------------------------|------------------|
|------------------------|------------------|
|------------------------|------------------|
|------------------------|------------------|
|
|  E  E E  E  E  E  E  E   H    +E   E  E E
|-12--0-7--0--8--0--4--0-|-5----(5)--8--7-5-|
|------------------------|------------------|
|------------------------|------------------|
|------------------------|------------------|
|------------------------|------------------|
|------------------------|------------------|


  1.                     2.
  (E)                    (E)
   Q.    E E  E  E E      W
|---------------------||-----------||
|-12----10-9-10-12-9-o||-12--------||
|---------------------||-----------||
|---------------------||-----------||
|--------------------o||-----------||
|---------------------||-----------||
|
|  W                      W
|--4------------------||--4--------||
|--------------------o||-----------||
|---------------------||-----------||
|---------------------||-----------||
|--------------------o||-----------||
|---------------------||-----------||


  A7/C#                   Dm
  E  E  E  E E  E  E  E    W
|---12-10-12-9-12----12-|-----------------------|
|-----------------12----|-10--------------------|
|-----------------------|-----------------------|
|-----------------------|-----------------------|
|-----------------------|-----------------------|
|-----------------------|-----------------------|
|
| W                        E  E E  E  E E  E  E
|-----------------------|---------------8-10-12-|
|-----------------------|----10-9-10-12---------|
|-----------------------|-----------------------|
|-----------------------|-----------------------|
|-----------------------|-----------------------|
|-----------------------|-----------------------|


  G7                      C                   (Am)                     F#
   E  E E  E E  E  E  E   W                    E  E  E  E E  E  E  E    W
|----10-8-10-7-10----10-|-------------------|-----8--7--8-5--8-----8-|-------|
|-----------------10----|-8-----------------|-------------------8----|--7----|
|-----------------------|-------------------|------------------------|-------|
|-----------------------|-------------------|------------------------|-------|
|-----------------------|-------------------|------------------------|-------|
|-----------------------|-------------------|------------------------|-------|
|
|  W                      E E E E  E E E  E    E  E  E  E E  E  E  E    W
|-13--------------------|------------7-8-10-|-12-12-10-12-8-12----12-|-------|
|-----------------------|---8-7-8-10--------|------------------12----|-11----|
|-----------------------|-------------------|------------------------|-------|
|-----------------------|-------------------|------------------------|-------|
|-----------------------|-------------------|------------------------|-------|
|-----------------------|-------------------|------------------------|-------|


  Bsus4
   H    E E E E     E  E E E E E  E     E
|-----------7---|--------7--------7----------|
|---------7---7-|------7---7---7--------7----|
|-------9-------|---9--------9---------------|
|---------------|----------------------------|
|---------------|----------------------------|
|---------------|----------------------------|
|
|  TP               TP
|  W               +H.            S  S  S  S
|---------------|----------------11-12-14-12-|
|-12------------|-(12)-----------------------|
|---------------|----------------------------|
|---------------|----------------------------|
|---------------|----------------------------|
|---------------|----------------------------|


  B
   E E  E  E  E  E  E E     E  E E E E E E E
|---------11-14-11------|----------------------||
|----7-12----------12-7-|----------------7-8---||
|--8--------------------|---9--8---6-8-9-------||
|-----------------------|--------9-------------||
|-----------------------|----------------------||
|-----------------------|----------------------||
|
|  W                       +W
|-11--------------------|-(11)-----------------||
|-----------------------|----------------------||
|-----------------------|----------------------||
|-----------------------|----------------------||
|-----------------------|----------------------||
|-----------------------|----------------------||


  Em
  Gtr III
  PM-------------------------------
  S S S S S S S S S S S S S S S S
|---------------------------------|
|---------------------------------|
|---5-4-2-4-2-------5-4-2-4-2-----|
|-2-----------5-4-2-----------5-4-|
|---------------------------------|
|---------------------------------|


  C/E                               D/E            B
 -------------------------------|
  S S S S S S S S S S S S S S S S   H.      S E.   H    H
|---------------------------------|--------------|-----------|
|---------------------------------|--------------|-----------|
|---5-4-2-4-2-----2---------------|--------------|-----------|
|-2-----------5-4---5-4-2-5-4-2-1-|-2-------2-5--|-4---------|
|---------------------------------|--------------|------5----|
|---------------------------------|--------------|-----------|


  C                                 D
  Gtr III
  S S S S S S S S S S S S S S S S   S S S S S S S S S S S S S S S S
|---------------------------------|---------------------------------|
|---------------------------------|---------------------------------|
|---5-4-2-4-2-------5-4-2-4-2-----|---5-4-2-4-2-----2---------------|
|-2-----------5-4-2-----------5-4-|-2-----------5-4---5-4-2-5-4-2-1-|
|---------------------------------|---------------------------------|
|---------------------------------|---------------------------------|
|
| Gtr IV
| W                                 W
|---------------------------------|---------------------------------|
|---------------------------------|---------------------------------|
|---------------------------------|---------------------------------|
|---------------------------------|---------------------------------|
|---------------------------------|---------------------------------|
|---------------------------------|---------------------------------|


  Em         N.C.
  W          S S S S S S S S Q  Q
|----------|-------------------------|
|----------|---------------4-5-------|
|----------|-----------4-5-----------|
|-2--------|-----4-5-7---------------|
|----------|-6-7---------------------|
|----------|-------------------------|
|
| W          S S S S S S S S Q  Q
|----------|-------------------------|
|----------|-------------5-7-8-------|
|----------|-------4-5-7-------------|
|----------|-4-5-7-------------------|
|----------|-------------------------|
|----------|-------------------------|


  Em
  PM-------------------------------
  S S S S S S S S S S S S S S S S
|---------------------------------|
|---------------------------------|
|---5-4-2-4-2-------5-4-2-4-2-----|
|-2-----------5-4-2-----------5-4-|
|---------------------------------|
|---------------------------------|


  C/E                               D/E          B
 -------------------------------|
  S S S S S S S S S S S S S S S S   H.      Q    H    H
|---------------------------------|------------|-----------|
|---------------------------------|------------|-----------|
|---5-4-2-4-2-----2---------------|------------|-----------|
|-2-----------5-4---5-4-2-5-4-2-1-|-2-------5--|-4---------|
|---------------------------------|------------|------5----|
|---------------------------------|------------|-----------|


  C                                 D
  Gtr III
  PM--------------------------------------------------------------|
  S S S S S S S S S S S S S S S S   S S S S S S S S S S S S S S S S
|---------------------------------|---------------------------------|
|---------------------------------|---------------------------------|
|---5-4-2-4-2-------5-4-2-4-2-----|---5-4-2-4-2-----2---------------|
|-2-----------5-4-2-----------5-4-|-2-----------5-4---5-4-2-5-4-2-1-|
|---------------------------------|---------------------------------|
|---------------------------------|---------------------------------|
|
| Gtr IV
| W                                 W
|---------------------------------|---------------------------------|
|---------------------------------|---------------------------------|
|---------------------------------|---------------------------------|
|---------------------------------|---------------------------------|
|---------------------------------|---------------------------------|
|---------------------------------|---------------------------------|


  Em         N.C.
  W          S S S S S S S S Q  Q
|----------|-------------------------||
|----------|---------------4-5-------||
|----------|-----------4-5-----------||
|-2--------|-----4-5-7---------------||
|----------|-6-7---------------------||
|----------|-------------------------||
|
| W          S S S S S S S S Q  Q
|----------|-------------------------||
|----------|-------------5-7-8-------||
|----------|-------4-5-7-------------||
|----------|-4-5-7-------------------||
|----------|-------------------------||
|----------|-------------------------||


   Verse
    Em              D/E             Em
    PM|    PM|      PM|    PM|      PM|    PM|      PM|    PM|
    E E Q  E E Q    E E Q  E E Q    E E Q  E E Q    E E Q  E E Q
||----------------|---------------|---------------|----------------|
||o---------------|---------------|---------------|----------------|
||----------------|---------------|---------------|----------------|
||------2------2--|-----2------2--|-----2------2--|-----2------2---|
||o---------------|---------------|---------------|----------------|
||--0-0----0-0----|-0-0----0-0----|-0-0----0-0----|-0-0----0-0-----|


  Am              F/A             Am
  PM|    PM|      PM|    PM|      PM|    PM|
  E E Q  E E Q    E E Q  E E Q    E E Q  E E Q
|---------------|---------------|-----5------5--|
|-----5------5--|-----6------6--|-----5------5--|
|-----5------5--|-----5------5--|-----5------5--|
|---------------|---------------|---------------|
|-0-0----0-0----|-0-0----0-0----|-0-0----0-0----|
|---------------|---------------|---------------|


  N.C.
  PM----------------------------|
  S S S S S S S S S S S S S S S S
|----------------------------------|
|----------------------------------|
|----------------------------------|
|----------------------------------|
|-3-5-3-2---3-2-----2--------------|
|---------5-----5-3---5-3-2-5-3-2--|


  Em              D/E             Em
  PM|    PM|      PM|    PM|      PM|    PM|      PM|    PM|
  E E Q  E E Q    E E Q  E E Q    E E Q  E E Q    E E Q  E E Q
|---------------|---------------|---------------|---------------|
|---------------|---------------|---------------|---------------|
|---------------|---------------|---------------|---------------|
|-----2------2--|-----2------2--|-----2------2--|-----2------2--|
|---------------|---------------|---------------|---------------|
|-0-0----0-0----|-0-0----0-0----|-0-0----0-0----|-0-0----0-0----|


  Em         D          Gsus4G      B
  W          W          H    H      H    H
|----------|----------|-----------|-7----7----||
|----------|----------|-----------|-7----7----||
|----------|----------|-5----4----|-9----8----||
|----------|----------|-5----5----|-----------||
|-2--------|-5--------|-----------|-----------||
|-0--------|-2--------|-----------|-----------||


 Pre-Chorus
  (Em)
  PM-------------------------------
  S S S S S S S S S S S S S S S S
|---------------------------------|
|---------------------------------|
|---------------------------------|
|---------------------------------|
|---------------------------------|
|-0-0-0-0-0-0-0-0-0-0-2-2-3-3-5-5-|


  (B)                               (Em)
 -----------------------------------------------------------------|
  S S S S S S S S S S S S S S S S   S S S S S S S S S S S S S S S S
|---------------------------------|---------------------------------|
|---------------------------------|---------------------------------|
|---------------------------------|---------------------------------|
|---------------------------------|---------------------------------|
|-2-2-2-2-2-2-2-2-2-3-2-----------|---------------------------------|
|-----------------------5-3-5-3-2-|-0-0-0-0-0-0-0-0-0-0-2-2-3-3-5-5-|


  (B)             (E)
  PM-------------------------------
  S S S S S S S S S S S S S S S S
|---------------------------------|
|---------------------------------|
|---------------------------------|
|---------------------------------|
|-2-2-2-2-2-2-2-2---------2-2-3-3-|
|-----------------4-4-5-5---------|


  (Am)                              (E)
 -----------------------------------------------------------------|
  S S S S S S S S S S S S S S S S   S S S S S S S S S S S S S S S S
|---------------------------------|---------------------------------|
|---------------------------------|---------------------------------|
|---------------------------------|---------------------------------|
|---------------------------------|-2-2-2-2-2-2-2-2-2-3-2-----------|
|---------------------2-2-3-3-5-5-|-----------------------5-3-2-----|
|-5-5-5-5-5-5-5-5-5-5-------------|-----------------------------5-4-|


  (Am)                              (E)  (A)       (Dm)
  PM----------------------------|   ~
  S S S S S S S S S S S S S S S S   H    E E E E   E E E E E E E E
|---------------------------------|--------------|------------------|
|---------------------------------|--------------|------------------|
|---------------------------------|--------3-2---|------------------|
|---------------------------------|-2----------5-|-3-2-------2-3-5--|
|---------------------2-2-3-3-5-5-|------4-------|-----5-4-5--------|
|-5-5-5-5-5-5-5-5-5-5-------------|--------------|------------------|


  (A)                    (Dm)                 (A)
  ~    PM------------|      PM------------|   ~
  H    S S S S S S S S   Q  S S S S E E E E   W
|----------------------|--------------------|------|
|----------------------|--------------------|------|
|-2----2-3-2-----------|--------------------|-2----|
|------------5-3-2-----|--------------2-3-5-|------|
|------------------5-4-|-5--5-5-5-5-5-------|------|
|----------------------|--------------------|------|


  Dm    C      Bb   Am     Bsus4      B
  Q  Q  H      H    H      W          W
|------------|-----------|-7--------|-7----||
|----6--5----|-3----1----|-7--------|-7----||
|-7-----5----|-3----2----|-9--------|-8----||
|-7----------|-----------|----------|------||
|------------|-----------|----------|------||
|------------|-----------|----------|------||


 Chorus
  $
  Em
  PM-------------------------------
  S S S S S S S S S S S S S S S S
|---------------------------------|
|---------------------------------|
|---5-4-2-4-2-------5-4-2-4-2-----|
|-2-----------5-4-2-----------5-4-|
|---------------------------------|
|---------------------------------|


  C/E                               D/E          B
 -------------------------------|
  S S S S S S S S S S S S S S S S   H.      Q    H    H
|---------------------------------|------------|-----------|
|---------------------------------|------------|-----------|
|---5-4-2-4-2-----2---------------|------------|-----------|
|-2-----------5-4---5-4-2-5-4-2-1-|-2-------5--|-4---------|
|---------------------------------|------------|------5----|
|---------------------------------|------------|-----------|


                                                                 To C
  C                                 D
  Gtr III
  S S S S S S S S S S S S S S S S   S S S S S S S S S S S S S S S S
|---------------------------------|---------------------------------|
|---------------------------------|---------------------------------|
|---5-4-2-4-2-------5-4-2-4-2-----|---5-4-2-4-2-----2---------------|
|-2-----------5-4-2-----------5-4-|-2-----------5-4---5-4-2-5-4-2-1-|
|---------------------------------|---------------------------------|
|---------------------------------|---------------------------------|
|
| Gtr IV
| W                                 W
|---------------------------------|---------------------------------|
|---------------------------------|---------------------------------|
|---------------------------------|---------------------------------|
|---------------------------------|---------------------------------|
|---------------------------------|---------------------------------|
|---------------------------------|---------------------------------|


             1.
 oda
  Em         N.C.
  W          S S S S S S S S Q  Q
|----------|--------------------------||
|----------|---------------4-5-------o||
|----------|-----------4-5------------||
|-2--------|-----4-5-7----------------||
|----------|-6-7---------------------o||
|----------|--------------------------||
|
| W          S S S S S S S S Q  Q
|----------|--------------------------||
|----------|-------------5-7-8-------o||
|----------|-------4-5-7--------------||
|----------|-4-5-7--------------------||
|----------|-------------------------o||
|----------|--------------------------||


  2.
       D.S. al Coda    &
  Em                      N.C.
   |---3---|
   Q   Q   Q    H         S S S S S S S S Q  Q
|-<5>---------<12>-----||-----------------------||
|---------<7>----------||---------------4-5-----||
|-----<5>--------------||-----------4-5---------||
|----------------------||-----4-5-7-------------||
|----------------------||-6-7-------------------||
|----------------------||-----------------------||
|
|  W                      S S S S S S S S Q  Q
|----------------------||-----------------------||
|----------------------||-------------5-7-8-----||
|----------------------||-------4-5-7-----------||
|----------------------||-4-5-7-----------------||
|----------------------||-----------------------||
|----------------------||-----------------------||


 Interlude
  (Em)         (Am)     (D)          (G)      (F)        (Em)     C  B  Em
  Q  +S  S S S E E Q    Q  +S  S S S E E Q    Q  +E  S S E E Q    Q  Q  Q  Q
|---------------------|---------------------|-------------------|--------------|
|---------------------|---------------------|-------------------|--------------|
|---------------------|---------------------|-------------------|-------4------|
|-2--(2)--------------|---------------------|-------------------|-5--4--2------|
|--------5-3-2--------|-5--(5)-3-2----------|-------------------|-3--2---------|
|--------------5------|------------5-3------|-1--(1)-3-5-0------|--------------|


  (Em)         (Am)      (D)          (G)
  Q  +S  S S S E E E E   Q  +S  S S S E E E E
|----------------------|----------------------|
|----------------------|----------------------|
|----------------------|----------------------|
|-2--(2)---------------|----------------------|
|--------5-3-2---2-3---|-5--(5)-3-2-------2---|
|--------------5-----5-|------------5-3-5---3-|


  (F)         (Em)     C  B  Em
  E E S S S S E E Q    Q  Q  Q  Q
|--------------------|-------------|
|--------------------|-------------|
|--------------------|-------4-----|
|--------------------|-5--4--2-----|
|--------------------|-3--2--------|
|-1---1-3-5-1-0------|-------------|


  (Em)                       (Am)                           (D)                     (G)
  Gtr IV
   |--3--|     |---3----|       |--3--|     |-----5-----|    |--3--|                 |--3--|      |--3--|
   S  S  S  E  S   S    S  E    S  S  S  E  S  S  S  S  S    S  S  S  E  S   S S  S  S  S  S  E   S  S  S  E
|-15h19p15---------------------------------17-20-17-------|-14h17p14----------------------------/19-15-------|
|----------17---------------------------------------17----|----------15--------------------------------15----|
|-------------12h=16p==12------14h17p14----------------17-|----------------------------16p12--------------16-|
|-------------------------14------------14----------------|----------------------------------12--------------|
|---------------------------------------------------------|-----------------13---13-14-----------------------|
|---------------------------------------------------------|--------------------------------------------------|
|
| Gtr III
|  Q          +S     S     S S  E        E  Q                Q          +S   S S  S  E        E   Q
|---------------------------------------------------------|--------------------------------------------------|
|---------------------------------------------------------|--------------------------------------------------|
|---------------------------------------------------------|--------------------------------------------------|
|--2----------(2)-----------------------------------------|--------------------------------------------------|
|--------------------5-----3-2----------------------------|--5----------(5)--3-2-----------------------------|
|-------------------------------5-------------------------|-----------------------5--3-----------------------|


  (F)                                (Em)
   |-----5-----|  |-------5--------|  |------5------|  |-----5-----|
   S  S  S  S  S  S   S  S    S    S  S  S  S    S  S  S  S  S  S  S
|-17p13-----------------------------------------------15p12-------------|
|-------13--------------------------------------------------12----------|
|----------14----14------------------12------------------------12-------|
|-------------15-----15-----------------14------------------------14----|
|-----------------------15---12---15-------14------14-------------------|
|-----------------------------------------------12----------------------|
|
|  Q             +E        S    S     E       E        Q
|-----------------------------------------------------------------------|
|-----------------------------------------------------------------------|
|-----------------------------------------------------------------------|
|-----------------------------------------------------------------------|
|-----------------------------------------------------------------------|
|--1-------------(1)-------3----5-----0---------------------------------|


  C     B     Em                      (Em)                    (Am)
                            ~~~~
      |--3--|  |--3--|                        |---3----|       |------5------|  |------5------|
   E  S  S  S  S  S  S  E   Q.    E    E.  S  S   S    S  E    S  S  S    S  S  S  S  S    S  S
|---------------------------------0-|-15\--------------------------------------20-17------------|
|----17----------------16-[17]------|--------12---------------13---------------------17------19-|
|-------17----------16--------------|-----12-----12--------------14-----------------------17----|
|-14-------17-14-16-----------------|-----------------14------------14------14------------------|
|-----------------------------------|--------------------14--------------15---------------------|
|-----------------------------------|-----------------------------------------------------------|
|
|  Q           Q            Q   Q      Q     +S     S     S S  E       E        E       E
|-----------------------------------|-----------------------------------------------------------|
|-----------------------------------|-----------------------------------------------------------|
|---------------------------4-------|-----------------------------------------------------------|
|--5-----------4------------2-------|--2-----(2)------------------------------------------------|
|--3-----------2--------------------|---------------5-----3-2----------2--------3---------------|
|-----------------------------------|--------------------------5------------------------5-------|


  (D)                  (G)
   |--3--|     |---3----|       |--3--|      |------5------|
   S  S  S  E  S   S    S  E    S  S  S  E   S  S  S    S  S
|-17---------------------------------------/19-14------------|
|----19------------------------12-----------------15---------|
|-------19----14------------------12-------------------16-16-|
|----------16-----16-----------------12----------------------|
|----------------------17-14------------14-------------------|
|------------------------------------------------------------|
|
|  Q          +S     S     S S  E        E   E       E
|------------------------------------------------------------|
|------------------------------------------------------------|
|------------------------------------------------------------|
|------------------------------------------------------------|
|--5----------(5)----3-----2-----------------2---------------|
|----------------------------5--3--------5-----------3-------|


  (F)                        (Em)
   |------5------|            |--3--|     |--3--|
   S  S  S    S  S  Q         S  S  S  E  S  S  S  E
|-17-13----------------------------------15-12--------||
|-------13-------------------------------------12-----||
|---------------14-----------12-------------------12\-||
|------------------15\----------14--------------------||
|------------15--------------------14-----------------||
|-------------------------------------15--------------||
|
|  E       E        S  S S S  E        E  Q
|-----------------------------------------------------||
|-----------------------------------------------------||
|-----------------------------------------------------||
|-----------------------------------------------------||
|-----------------------------------------------------||
|--1----------------1--3-5-1--0-----------------------||


  C           B              (Em)
 2/4                        3/4
                              |--3--|  |--3--|  |--3--|
   S  S  S  S  S  S  S  S     E  E  E  E  E  E  E  E  E
|----12-------------------||-15-19-15-12-15-12-----------|
|-------13-------16-------||-------------------12-17-12--|
|----------12-------16----||-----------------------------|
|-14----------13-------13-||-----------------------------|
|-------------------------||-----------------------------|
|-------------------------||-----------------------------|
|
|                             |--3--|  |--3--|  |--3--|
|  Q           Q              E  E  E  E  E  E  E  E  E
|-------------------------||-12-15-12--------------------|
|-------------------------||----------12-17-12-----------|
|-------------------------||-------------------12-16-12--|
|--5-----------4----------||-----------------------------|
|--3-----------2----------||-----------------------------|
|-------------------------||-----------------------------|


  |-3--| |-3--|  |--3--|    |--3--| |-3--| |-3--|
  E  E E E  E E  E  E  E    E  E  E E  E E E  E E
|------------------------|------------------------||
|-8-12-8-----------------|------------------------||
|--------9-12-9----------|------------------------||
|----------------9-14--9-|------------------------||
|------------------------|-10-14-10-7-10-7--------||
|------------------------|-----------------7-12-7-||
|
| |-3--| |-3--|  |--3--|    |--3--| |-3--| |-3--|
| E  E E E  E E  E  E  E    E  E  E E  E E E  E E
|------------------------|------------------------||
|------------------------|------------------------||
|-9-12-9-----------------|------------------------||
|--------9-14-9----------|------------------------||
|---------------10-14-10-|--7-10--7---------------||
|------------------------|----------7-12-7-3--7-3-||


  (Em)              (F#)
 4/4
   ~~
   H     E E E  E    H    H
|-----------------|------------||
|-----------------|------------||
|-----------------|------------||
|----------7-9-10-|-11----8----||
|-10----10--------|------------||
|-----------------|------------||
|
|  ~~                ~~~~~~~
|  H     E E E  E    H    H
|-----------------|------------||
|-----------------|------------||
|---------------2-|--3---------||
|--2-----2-4-5----|-------4----||
|-----------------|------------||
|-----------------|------------||


 Guitar Solo
  Bm
  Gtr IV
                                      ~~~~
                                             |------6-------|  |------6-------|
   E  T  T  T  T  Q   S  E.  +Q      +H      S  S  S  S  S  S  S  S  S  S  S  S
|-------------14-19--14-19--(19)--|-(19)----14h15p14----------------------------|
|---------------------------------|------------------17-15-14-------------------|
|----------16---------------------|---------------------------16-15-14----------|
|-------16------------------------|------------------------------------17-16-14-|
|-14-17---------------------------|---------------------------------------------|
|---------------------------------|---------------------------------------------|


  A#
   |-----6-----|  |-----6-----|  |-----6-----|  |--3--|
   S  S  E  S  S  S  S  S  S  E  S  S  E  S  S  S  S  S  E
|------------------------------------------------------------|
|------------------------------------------------------------|
|-------------------------14-16-14---------------------------|
|----------------14-16-17----------17-16-17-16-14------------|
|-17-16-14-16-17----------------------------------17-16-14---|
|------------------------------------------------------------|


                                      Em
                                                ~~~~~~~~~
  |-----6-----|       |-----5-----|
  S S  S S S  S H     S  S  S  S  S    Q       +H.
|-----------------------------------|-14b15===(14)------|
|--------------------------14-15-17-|-------------------|
|--------------------15-16----------|-------------------|
|-9-7-------------------------------|-------------------|
|-----10-9-7------------------------|-------------------|
|------------10-7-------------------|-------------------|


                           G
 ~~~~~~
   +H      +E    E  E  E    E  E  E  E  E  E  E  E
|-(14)----(14)r----15----|-------------14-----------|
|---------------15----14-|-15----14-15----15-14-----|
|------------------------|----16----------------16--|
|------------------------|--------------------------|
|------------------------|--------------------------|
|------------------------|--------------------------|


  Bm/F#             F#      Bm
                     ~~
   |--3--|  |--3--|          |---3----|                          |------6-------|
   E  E  E  E  E  E  H       E  E  S  S  S  S  S  S  S  S  S  S  S  S  S  S  S  S
|-------------------------|----------------14-19-14----14-15-14-------------------|
|-------14----------------|-------------------------18----------15-14-------------|
|-15-16-------------------|-------------16----------------------------16-14-------|
|----------14-16-17-16----|-16-------16-------------------------------------17-16-|
|-------------------------|----14-17----------------------------------------------|
|-------------------------|-------------------------------------------------------|


   |--3--|        |--3--|  |-----5-----|  |-----5-----|
   E  E  E  S  S  S  S  S  S  S  S  S  S  S  S  S  S  S
|---------------------------------------------------------|
|----------------------------------------14-15-17-14-15---|
|----------------------------------14-16------------------|
|-16-14-16----------------14-16-17------------------------|
|----------17-16-14-16-17---------------------------------|
|---------------------------------------------------------|


  A#
                      ~~~
   H.        E.  S    H.      E S  S
|-14-------/21--19-|-18--------------|
|------------------|-----------------|
|------------------|-----------------|
|------------------|-----------------|
|------------------|-----------------|
|------------------|----------7-9-10-|


  Em
                          |------6-------|
  E  S S S S  S S S S S S S  S  S  S  S  S
|------------------------------------------|
|-----------------------8---------10-12-14-|
|---------------7-9-7-9---9-11-12----------|
|--------7-9-11----------------------------|
|-7----7-----------------------------------|
|---10-------------------------------------|


   |------6-------|  |------6-------|  |-------5--------|
   S  S  S  S  S  S  S  S  S  S  S  S  S  S  S     +S   S  Q
|-12-14-------12-14----12-14-15-14-12-14-12------------12---------|
|-------14-15-------15----------------------15b17-(15)----15b17===|
|-----------------------------------------------------------------|
|-----------------------------------------------------------------|
|-----------------------------------------------------------------|
|-----------------------------------------------------------------|


  G                        Bm/F# F#
            /1.5_____|
    ~~~~~
   +H       Q       +Q      H     +Q    +E. S
|------------------------|-14----(14)--(14)-0--||
|-(15)r----12------(12)--|---------------------||
|------------------------|---------------------||
|------------------------|---------------------||
|------------------------|---------------------||
|------------------------|---------------------||


  C#m
  Gtr IV
                  |------6-------|  |-----6-----|
   E  T  T  T  T  S  S  S  S  S  S  S  S  S  S  E  +Q
|----------------16-21-16----------16-21-21-16-21-(21)b24===|
|-------------17----------17----17--------------------------|
|----------18----------------18-----------------------------|
|-------18--------------------------------------------------|
|-16-19-----------------------------------------------------|
|-----------------------------------------------------------|
|
| Gtr III
|  E  E           E        E        E        E      Q
|-----------------------------------------------------------|
|-----------------------------------------------------------|
|-----------------------------------------------------------|
|--------------------------------------------2--------------|
|--4--4-----------4--------2--------4---------------4-------|
|-----------------------------------------------------------|


    ~~~~~
             |-------6--------|  |-----5-----|
   +H        S   S  S  S   S  S  S  S  S  S  S
|-(21)r-----17--16-14-16--14-------14----------|
|----------------------------17-16----17-16-14-|
|----------------------------------------------|
|----------------------------------------------|
|----------------------------------------------|
|----------------------------------------------|
|
|  +Q    Q  +E         Q.
|----------------------------------------------|
|----------------------------------------------|
|----------------------------------------------|
|----------------------------------------------|
|--(4)-----------------------------------------|
|--------0--(0)--------2-----------------------|


  A/C#
   |------6-------|  |------5------|  |------6-------|  |------6-------|
   S  S  S  S  S  S  S  S  S    S  S  S  S  S  S  S  S  S  S  S  S  S  S
|-------14-16-17-16-14-16-14---------14----------------------------------|
|-16-17------------------------17-16----17-16-14-17-16-14----16-14-------|
|---------------------------------------------------------16-------16-14-|
|------------------------------------------------------------------------|
|------------------------------------------------------------------------|
|------------------------------------------------------------------------|
|
|  E        E        E       E        E        E        Q
|------------------------------------------------------------------------|
|------------------------------------------------------------------------|
|------------------------------------------------------------------------|
|----------------------------------------------2-------------------------|
|--4--------4--------4-------2--------4-----------------4----------------|
|------------------------------------------------------------------------|


   |-------6-------|  |-----5-----|  |-------5-------|  |------6-------|
   S   S  S  S  S  S  S  S  S  S  S  S   S  S     S  S  S  S  S  S  S  S
|-------------------------------------------------------------------------|
|-14----------------------------------------------------------------------|
|-----16-14-13-16-14-13----14-13--------13----------------------------13--|
|-----------------------16-------16-14-----16----14-13-16-14-13----14-----|
|---------------------------------------------------------------16--------|
|-------------------------------------------------------------------------|
|
| +Q                  Q             +E        Q.
|-------------------------------------------------------------------------|
|-------------------------------------------------------------------------|
|-------------------------------------------------------------------------|
|-------------------------------------------------------------------------|
|-(4)-----------------------------------------2---------------------------|
|---------------------4-------------(4)-----------------------------------|


  C#m
   |------5------|
   S  S  S    S  S  S  S  E  S  S  S  S  Q
|-------------------------------------------|
|-14----------------------------------------|
|----13------------13-------------------13--|
|-------14------14----16-14-16----14-16-----|
|------------16----------------16-----------|
|-------------------------------------------|
|
|  E       E        E     E  E     E     Q
|-------------------------------------------|
|-------------------------------------------|
|-------------------------------------------|
|----------------------------------2--------|
|--4-------4--------4-----2--4-----------4--|
|-------------------------------------------|


            |-----6-----|  |-------6--------|  |------6-------|
   +E    E  E  S  S  S  S  S   S  S  S   S  S  S  S  S  S  S  S
|-----------------------------------11--12-14-11-12-14-12-11-12--|
|-------------------------12--13-14------------------------------|
|-(13)-----------12-13-14----------------------------------------|
|------/16-14-14-------------------------------------------------|
|----------------------------------------------------------------|
|----------------------------------------------------------------|
|
|  +Q       Q             +E         Q.
|----------------------------------------------------------------|
|----------------------------------------------------------------|
|----------------------------------------------------------------|
|----------------------------------------------------------------|
|--(4)-----------------------------------------------------------|
|-----------0-------------(0)--------2---------------------------|


  A/C#
                                                           ~~~~~
   |------6-------|  |---------7---------|
   S  S  S  S  S  S  S  S  S  S    S  S  S  H             +W
|-14-16-12-14-16-17-14-16-17-19---16-17-19-19b21=======|=(19)r--------------||
|------------------------------------------------------|--------------------||
|------------------------------------------------------|--------------------||
|------------------------------------------------------|--------------------||
|------------------------------------------------------|--------------------||
|------------------------------------------------------|--------------------||
|
|  E        E        E          E           E     E Q     +Q    Q  +E  Q.
|------------------------------------------------------|--------------------||
|------------------------------------------------------|--------------------||
|------------------------------------------------------|--------------------||
|-------------------------------------------------2----|--------------------||
|--4--------4--------4----------2-----------4-------4--|--(4)----------2----||
|------------------------------------------------------|--------4--(4)------||


  E
  |------5------|  |------5------|
  S  S  S    S  S  S  S  S    S  S  S S  S  S S  S S  S
|---12-13---12-10---------------------------------------|
|-----------------13-12-10---12-13-12-9----12-9---------|
|---------------------------------------10------10-9-10-|
|-------------------------------------------------------|
|-------------------------------------------------------|
|-------------------------------------------------------|
|
| E       E        E       E        E    E    E    E
|-------------------------------------------------------|
|-------------------------------------------------------|
|-------------------------------------------------------|
|-------------------------------------------------------|
|-------------------------------------------------------|
|-0-------0--------0-------0--------0---------0----0----|


          |-3-|    |-3-|  |-----6-----|
  Q.      S S S E  S S S  S S S  S S  S
|---------------------------------------|
|-------------------------------12-9-10-|
|-9---------------10-7-9-10-9-7---------|
|--------10-9-7-9-----------------------|
|---------------------------------------|
|---------------------------------------|
|
| E  E E  E     E  E      E      E
|---------------------------------------|
|---------------------------------------|
|---------------------------------------|
|---------------------------------------|
|---------------------------------------|
|-0--0-0--0-----0--0------0------0------|


  Dm/E
                               |-3--|  |-----5------|
   S  S S  S  S  S  S  S S  S  S S  S  S S  S    S  S   S  S  S S S S S S S S S S E E
|-----------------------------------------------------|----------------------------------|
|-12-10-9---------------------------------------------|----------------------------------|
|---------10------------------10-9--------------------|----------------------------------|
|------------12-10-12-10-9---------12-10-9------------|-9---------7-6--------------------|
|--------------------------12--------------12---11-12-|---12-11-8-----8-7-8-7-5----------|
|-----------------------------------------------------|-------------------------8-5-4----|
|
|  E    E     E     E    E     E       E      E         E     E   E   E   E   E   E E
|-----------------------------------------------------|----------------------------------|
|-----------------------------------------------------|----------------------------------|
|-----------------------------------------------------|----------------------------------|
|-----------------------------------------------------|----------------------------------|
|-----------------------------------------------------|----------------------------------|
|--0----0-----0-----0----0-------------0------0-------|-0-----0---0---0---0---0---0-0----|


  E
                                |----5----|   |-3-|   |3|  |------6-------|
  S S S S S S S S E S S E S S   S S S   S S E S S S E E S  S  S  S  S  S  S
|-----------------------------|-----------------------5-7-12-13-12----------|
|-----------------------------|-------------5-----5-5--------------15-13-12-|
|---------------------------4-|-4-4-----4-5---5-5---------------------------|
|-------------------------6---|-----7---------------------------------------|
|-----------------5-3-5-7-----|---------------------------------------------|
|-4-5-7-5-4-5-4-5-------------|---------------------------------------------|
|
| E   E   E   E   E E   E E     E     E     E E     E E    E        E
|-----------------------------|---------------------------------------------|
|-----------------------------|---------------------------------------------|
|-----------------------------|---------------------------------------------|
|-----------------------------|---------------------------------------------|
|-----------------------------|---------------------------------------------|
|-0---0---0---0---0-----0-0---|-0-----0-----0-0-----0-0----0--------0-------|


  Dm/E
      ~~~
                        |--3--|
   E  Q.      +Q     E  S  S  S
|-19-20------(20)---17-19-17-16---|
|---------------------------------|
|---------------------------------|
|---------------------------------|
|---------------------------------|
|---------------------------------|
|
|  E  E  E E   E  E  E  E
|---------------------------------|
|---------------------------------|
|---------------------------------|
|---------------------------------|
|---------------------------------|
|--0--0--0-0---0-----0--0---------|


                                     Bsus4       B
   |---3---|  |---3---|
   E  E    E  E  E    E  E  E  Q      W           W
|-17-13---16-12-13------12-13-12---|-19--------|-21b23----||
|--------------------15------------|-----------|----------||
|----------------------------------|-----------|----------||
|----------------------------------|-----------|----------||
|----------------------------------|-----------|----------||
|----------------------------------|-----------|----------||
|
|                                     ~~
|  E    E     E    E     E  E  E E    W           W
|----------------------------------|--7--------|--7-------||
|----------------------------------|--7--------|--7-------||
|----------------------------------|--9--------|--8-------||
|----------------------------------|-----------|----------||
|----------------------------------|-----------|----------||
|--0----0-----0----0-----0--0--0-0-|-----------|----------||


 Out-Chorus
  Em
                         ~~~~~~~~~~~~~~~~~~
   H                    +H
|-22b24================(22)---------------|
|-----------------------------------------|
|-----------------------------------------|
|-----------------------------------------|
|-----------------------------------------|
|-----------------------------------------|
|
|  PM--------------------------------------
|  S     S S S S S S S   S  S S S S S S S
|-----------------------------------------|
|-----------------------------------------|
|--------5-4-2-4-2----------5-4-2-4-2-----|
|--2---------------5-4---2------------5-4-|
|-----------------------------------------|
|-----------------------------------------|


  C/E                                   D/E          B
 ~~~~~~~
   +H                 H                 W            W
|-(22)r-------------------------------|------------|-----------|
|-------------------------------------|------------|-----------|
|-------------------------------------|------------|-----------|
|-------------------------------------|------------|-----------|
|-------------------------------------|------------|-----------|
|-------------------------------------|------------|-----------|
|
|-----------------------------------|
|   S   S S S S S S S S S S S S S S S   H.      Q    H    H
|-------------------------------------|------------|-----------|
|-------------------------------------|------------|-----------|
|-------5-4-2-4-2-----2---------------|------------|-----------|
|---2-------------5-4---5-4-2-5-4-2-1-|-2-------5--|-4---------|
|-------------------------------------|------------|------5----|
|-------------------------------------|------------|-----------|


  C                                 D
  Gtr III
  PM--------------------------------------------------------------|
  S S S S S S S S S S S S S S S S   S S S S S S S S S S S S S S S S
|---------------------------------|---------------------------------|
|---------------------------------|---------------------------------|
|---5-4-2-4-2-------5-4-2-4-2-----|---5-4-2-4-2-----2---------------|
|-2-----------5-4-2-----------5-4-|-2-----------5-4---5-4-2-5-4-2-1-|
|---------------------------------|---------------------------------|
|---------------------------------|---------------------------------|


  Em
      \1/       \1/  \1/
                             ~~~
  Q  +Q    +E  +E   +Q      +W
|-------------------------|--------|
|-------------------------|--------|
|-------------------------|--------|
|-2--(2)---(2)-(2)--(2)---|-(2)----|
|-------------------------|--------|
|-------------------------|--------|


  PM-------------------------------
  S S S S S S S S S S S S S S S S
|---------------------------------|
|---------------------------------|
|---5-4-2-4-2-------5-4-2-4-2-----|
|-2-----------5-4-2-----------5-4-|
|---------------------------------|
|---------------------------------|


  C/E                               D/E          B
 -------------------------------|
  S S S S S S S S S S S S S S S S   H.      Q    H    H
|---------------------------------|------------|-----------|
|---------------------------------|------------|-----------|
|---5-4-2-4-2-----2---------------|------------|-----------|
|-2-----------5-4---5-4-2-5-4-2-1-|-2-------5--|-4---------|
|---------------------------------|------------|------5----|
|---------------------------------|------------|-----------|


  C
  PM-------------------------------
  S S S S S S S S S S S S S S S S
|---------------------------------|
|---------------------------------|
|---5-4-2-4-2-------5-4-2-4-2-----|
|-2-----------5-4-2-----------5-4-|
|---------------------------------|
|---------------------------------|


  D                                 Em
 -------------------------------|   ~~~~~~~~~~~~~~~~    ~~~~
  S S S S S S S S S S S S S S S S   W          +E   E  +H.
|---------------------------------|----------|----------------|
|---------------------------------|----------|----------------|
|---5-4-2-4-2-----2---------------|----------|----------------|
|-2-----------5-4---5-4-2-5-4-2-1-|-2--------|-(2)s14-(14)----|
|---------------------------------|----------|----------------|
|---------------------------------|----------|----------------|


  PM-------------------------------
  S S S S S S S S S S S S S S S S
|---------------------------------|
|---------------------------------|
|---5-4-2-4-2-------5-4-2-4-2-----|
|-2-----------5-4-2-----------5-4-|
|---------------------------------|
|---------------------------------|


  C/E                               D/E          B
 -------------------------------|
  S S S S S S S S S S S S S S S S   H.      Q    H    H
|---------------------------------|------------|-----------|
|---------------------------------|------------|-----------|
|---5-4-2-4-2-----2---------------|------------|-----------|
|-2-----------5-4---5-4-2-5-4-2-1-|-2-------5--|-4---------|
|---------------------------------|------------|------5----|
|---------------------------------|------------|-----------|


  C                                 D
  PM--------------------------------------------------------------|
  S S S S S S S S S S S S S S S S   S S S S S S S S S S S S S S S S
|---------------------------------|---------------------------------|
|---------------------------------|---------------------------------|
|---5-4-2-4-2-------5-4-2-4-2-----|---5-4-2-4-2-----2---------------|
|-2-----------5-4-2-----------5-4-|-2-----------5-4---5-4-2-5-4-2-1-|
|---------------------------------|---------------------------------|
|---------------------------------|---------------------------------|


  Em
  ~~      PM---------|   ~          ~~
          |----6-----|
  H.      S S  S S S S   Q  +E   E  H
|----------------------|-----------------|
|----------------------|---------5s17----|
|--------------------8-|-9--(9)\---------|
|-2--------------7-9---|-----------------|
|---------7-9-10-------|-----------------|
|----------------------|-----------------|


    PM-------------------------------
    S S S S S S S S S S S S S S S S
||----------------------------------|
||o---------------------------------|
||----5-4-2-4-2-------5-4-2-4-2-----|
||--2-----------5-4-2-----------5-4-|
||o---------------------------------|
||----------------------------------|


  C/E                               D/E          B
 -------------------------------|
  S S S S S S S S S S S S S S S S   H.      Q    H    H
|---------------------------------|------------|-----------|
|---------------------------------|------------|-----------|
|---5-4-2-4-2-----2---------------|------------|-----------|
|-2-----------5-4---5-4-2-5-4-2-1-|-2-------5--|-4---------|
|---------------------------------|------------|------5----|
|---------------------------------|------------|-----------|


  C
  PM-------------------------------
  S S S S S S S S S S S S S S S S
|---------------------------------|
|---------------------------------|
|---5-4-2-4-2-------5-4-2-4-2-----|
|-2-----------5-4-2-----------5-4-|
|---------------------------------|
|---------------------------------|


  D                                 Em
 -------------------------------|   ~~~~~~~~~~~~~~~
  S S S S S S S S S S S S S S S S   W          +W
|---------------------------------|----------|---------||
|---------------------------------|----------|--------o||
|---5-4-2-4-2-----2---------------|----------|---------||
|-2-----------5-4---5-4-2-5-4-2-1-|-2--------|-(2)-----||
|---------------------------------|----------|--------o||
|---------------------------------|----------|---------||



Duration Legend
---------------
W - whole; H - half; Q - quarter; E - 8th; S - 16th; T - 32nd; X - 64th; a - acciaccatura
+ - note tied to previous; . - note dotted; .. - note double dotted
Uncapitalized letters represent notes that are staccato (1/2 duration)
Irregular groupings are notated above the duration line
Duration letters will always appear directly above the note/fret number it represents the
duration for.  Duration letters with no fret number below them represent rests.  Multi-
bar rests are notated in the form Wxn, where n is the number of bars to rest for.  Low
melody durations appear below the staff

Tablature Legend
----------------
 h   - hammer-on
 p   - pull-off
 b   - bend
 pb  - pre-bend
 r   - bend release (if no number after the r, then release immediately)
 /\  - slide into or out of (from/to "nowhere")
 s   - legato slide
 S   - shift slide
 - natural harmonic
[n]  - artificial harmonic
n(n) - tapped harmonic
 ~   - vibrato
 tr  - trill
 T   - tap
 TP  - trem. picking
 PM  - palm muting
\n/  - tremolo bar dip; n = amount to dip
 \n  - tremolo bar down
 n/  - tremolo bar up
/n\  - tremolo bar inverted dip
 =   - hold bend; also acts as connecting device for hammers/pulls
 <> - volume swell (louder/softer)
 x   - on rhythm slash represents muted slash
 o   - on rhythm slash represents single note slash

Misc Legend
-----------
 |  - bar
||  - double bar
||o - repeat start
o|| - repeat end
*|  - double bar (ending)
 :  - bar (freetime)
 $  - Segno
 &  - Coda
Tempo markers -  = BPM(8/16=s8/s16), where s8 = swing 8ths, s16 = swing 16ths





Comments


Popular Yngwie Malmsteen tabs & chords
Asylum Part 1 Bass Tabs
Carry On Wayward Son Tabs
Disciples Of Hell Tabs
Faster Than The Speed Of Light 1 Tabs
Golden Dawn Tabs
Krakatau Tabs
Liar Tabs
Paganinis Fifth Caprice In A Minor Tabs
Perpetual Tabs
Sorrow Tabs


Song lyrics



↑ Back to top | Tablatures and chords are parodies/interpretations of the original songs. You may use it for private study, scholarship, research or language learning purposes only
© 2014 AZChords.com Contact us | Privacy policy | DMCA | Add/correct tabs | Request tabs | Top 50 tabs