>
 >
On The Run Again 1

On The Run Again 1 Guitar Tabs

Yngwie Malmsteen - On The Run Again 1 chords, tabs, tablatures, lyrics

Guitar lessons | Add/correct | Request | Top 50 tabs Artists:  A B C D E F G H I J K L M N O P Q R S T U V W X Y Z 0-9

On The Run Again 1 Guitar Tabs – Yngwie Malmsteen

CD, Sheet music, Poster

Do you like On The Run Again 1? Share with your friends now
TabsTabs v2

ON THE RUN AGAIN
As recorded by Yngwie Malmsteen
(From the 1985 Album MARCHING OUT)

        

Words and Music by Yngwie Malmsteen and Jeff Scott Soto

Gtr I (E A D G B E) - 'Rhythm Guitar'
Gtr II (E A D G B E) - 'Solo Guitar'
Gtr III (E A D G B E) - 'Untitled'

               Intro - Main Riff
  Heavy Rock Q=150
                F#m7
 4/4
  Gtr I
                PM|   PM  PM        PM|   PM              PM  PM  PM
  H Q   E  E    e e E E E E E  E    e E E E E E E E   +E  e E E E E E E
|---------||-------------------|-----------------|--------------------|
|-------x----||-------------------|-----------------|--------------------|
|-------x----||-----2---1---2-----|-----2---4-2-1---|-------2---1---2----|
|------------||-----2---2---2-----|-----2---4-2-2---|-------2---2---2----|
|----------x-||---------------(4)-|---------------4-|-(4)-------------x--|
|----------x-||-2-2---2---2----2--|-2-2---2-------2-|-(2)-2---2---2---2--|


  PM|   PM              PM  PM  PM          PM  PM
  e E E E E E E E   +E  e E E E E E E   +E  e E E E E E E
|-----------------|-------------------|-------------------||
|-----------------|-------------------|-------------------||
|-----2---4-2-1---|-------2---1---2---|-------2---4-2-1---||
|-----2---4-2-2---|-------2---2---2---|-------2---4-2-2---||
|---------------4-|-(4)-------------4-|-(4)-------------4-||
|-2-2---2-------2-|-(2)-2---2---2---2-|-(2)-2---2-------2-||


 (Band In)
  Gtr I
      PM  PM  PM|                       PM            PM
  +E  e E E E S S   E   E         +E    e      E      E   E  E   E    E
|------------------------------|-------------------------------------------|
|------------------------------|-------------------------------------------|
|-------2---1-------2----------|---------------2----------4--2---1---------|
|-------2---2-------2----------|---------------2----------4--2---2---------|
|-(4)-------------------4------|--(4)---------------------------------4----|
|-(2)-2---2---2-x-------2------|--(2)---2-------------2---------------2----|
|
| Gtr II
|  <
|  ~~~                                         ~~~~~~~~~~~~~~
|  H.              +E   E         +E    E      Q         +Q     +E    S  S
|----------------------19pb21==|=(19)r-19pb21-19pb21====(19)---(19)r-------|
|-19--------------(19)---------|-------------------------------------14-14-|
|------------------------------|-------------------------------------------|
|------------------------------|-------------------------------------------|
|------------------------------|-------------------------------------------|
|------------------------------|-------------------------------------------|


          PM       PM               PM      PM
  +E      e   E    E        E       E    E  E
|----------------------------------------------|
|----------------------------------------------|
|-------------2-------------1------------2-----|
|-------------2-------------2------------2-----|
|-(4)------------------------------------------|
|-(2)-----2--------2----------------2-------2--|
|
|                                   ~~~~~~~~
|                  |--3--|
|  Q         +E    S  S  S  E      +E   +Q
|----------------------------------------------|
|-17pb19====(17)r-17-14-17-17b19==(17)-(17)----|
|----------------------------------------------|
|----------------------------------------------|
|----------------------------------------------|
|----------------------------------------------|


    PM---|          PM
    E      e  E     E     E     E     E     E
|------------------------------------------------|
|------------------------------------------------|
|-------------2-----------4-----2-----1----------|
|-------------2-----------4-----2-----2----------|
|------------------------------------------------|
|---2------2--------2-----------------------2----|
|
|  +E      E  S  S  S  S  S  S  S  S  S  S  S  S
|------------------17p14-19p14----14-20p14-19-14-|
|-(17)r--/14-18p14-------------17----------------|
|------------------------------------------------|
|------------------------------------------------|
|------------------------------------------------|
|------------------------------------------------|


   PM---|            PM               PM                      PM-|        PM
   e     e     E     E     E          E     E     E           e  E  E     E     E     E     E E
|---------------------------------------------------------|--------------------------------------|
|---------------------------------------------------------|--------------------------------------|
|--------------2-----------1----------------2-------------|---------2-----------4-----2-----1----|
|--------------2-----------2----------------2-------------|---------2-----------4-----2-----2----|
|---------------------------------------------------------|-----------------------------------4--|
|--2-----2-----------2----------------2-----------2-------|---2--2--------2-------------------2--|
|
|                                                             ~~~~                          ~~
|  S  S  S  S  S  S  S  S  S     +S   S  S  S  S  S  S       +Q     S  S  S  S  S  S  S  S  Q
|----14-19-17-14----17-14------------14-------------------|--------14----------------------------|
|-17-------------17-------17b19-(17)----17-14----14-------|-----------17-14----------------------|
|---------------------------------------------18----17b18-|-(17)------------17-16-14----16-14----|
|---------------------------------------------------------|--------------------------16----------|
|---------------------------------------------------------|--------------------------------------|
|---------------------------------------------------------|--------------------------------------|


    PM-|            PM          PM
    e   e     E     E     E     E     E     E
|------------------------------------------------|
|------------------------------------------------|
|-------------2-----------1-----------2----------|
|-------------2-----------2-----------2----------|
|------------------------------------------------|
|---2---2-----------2-----------2-----------2----|
|
|  +E   S  S  S  S  S  S  S  S  S  S  S  S  S  S
|------------------14----------------------------|
|---------------15----15-17-14-15-14----------14-|
|-(14)-13s14h16----------------------16-14-16----|
|------------------------------------------------|
|------------------------------------------------|
|------------------------------------------------|


   PM---|            PM
   e     E     E     E     E     E     E     E
|-------------------------------------------------|
|-------------------------------------------------|
|--------------2-----------4-----2-----1----------|
|--------------2-----------4-----2-----2----------|
|-------------------------------------------------|
|--2-----2-----------2-----------------------2----|
|
|  S  S  S  S  S  S  S  S  S  S  S  S  S  S  S  S
|-------------------------------------------------|
|-15-19-17-15-14-17-15-14----15-14-------14-------|
|-------------------------16-------16-14----16-14-|
|-------------------------------------------------|
|-------------------------------------------------|
|-------------------------------------------------|


   PM---|               PM          PM
   e     e     E        E     E     E       E     E
|------------------------------------------------------|
|------------------------------------------------------|
|--------------2--------------1-------------2----------|
|--------------2--------------2-------------2----------|
|------------------------------------------------------|
|--2-----2--------------2-----------2-------------2----|
|
|              |--3--|
|  S  S  S  S  S  S  S  S  S  S  S  S  S    S  S  S  S
|----------------------------17p14--------/21p16-------|
|-------------------14-19p14-------14------------19----|
|-13-16-14-13----14-------------------(x)-----------18-|
|-------------16---------------------------------------|
|------------------------------------------------------|
|------------------------------------------------------|


   PM-----|   PM
   e      E E E   E  E E  E
|-----------------------------------||
|-----------------------------------||
|-----------2-----4--2-1------------||
|-----------2-----4--2-2--4---------||
|-------------------------4---------||
|--2------2---2-----------2---------||
|
|  H             +Q.      S     +S
|-21pb24========(21)r====21b24-(21)-||
|-----------------------------------||
|-----------------------------------||
|-----------------------------------||
|-----------------------------------||
|-----------------------------------||


   Verse
    Gtr I
    +Q   Q   Q   E   E   +Q     E E E  E E  E   +Q  Q Q     E E
||--------------<7>----|----------------------|------------------|
||o--------------------|----------------------|------------------|
||-------------------7-|-(7)------2-----------|------------------|
||--(4)--------------7-|-(7)------2----2----4-|-(4)-----------4--|
||o-(4)--------------5-|-(5)------0----2----4-|-(4)---x\------4--|
||--(2)----------------|---------------0----2-|-(2)-----------2--|


  +Q    Q   E E e E   +Q    Q   Q  E E   +Q    E E  E  E  E E
|-------------------|------------------|----------------------|
|-------------0-----|------------------|----------------------|
|-------------------|----------------7-|-(7)-----2------------|
|-(4)-----------4-4-|-(4)------------7-|-(7)-----2-----2----4-|
|-(4)-------------4-|-(4)------------5-|-(5)-----0-----2----4-|
|-(2)-------------2-|-(2)--------------|---------------0----2-|


                                        PM------------|
  +Q   Q  E  E   E  E   +Q   Q     H    e e e e e e e e
|-----------<7>-------|---------------|-----------------|
|-----------<7>-<7>---|---------------|-----------------|
|------------<7>---|---------------|-----------------|
|-(4)-----------<7>-4-|-(4)--x\-------|-----------------|
|-(4)---------------4-|-(4)--x\-------|-----------------|
|-(2)---------------2-|-(2)-----------|-2-2-2-2-2-2-2-2-|


  PM------------------------------------------------|
  e e e e e e e e   e e e e e e e e   e e e e e e e e
|-----------------|-----------------|-----------------|
|-----------------|-----------------|-----------------|
|-----------------|-----------------|-----------------|
|-----------------|-----------------|-----------------|
|-----------------|-----------------|-----------------|
|-2-2-2-2-2-2-2-2-|-2-2-2-2-2-2-2-2-|-2-2-2-2-2-2-2-2-|


  PM------------------------------------------------|
  e e e e e e e e   e e e e e e e e   e e e e e e e e
|-----------------|-----------------|-----------------|
|-----------------|-----------------|-----------------|
|-----------------|-----------------|-----------------|
|-----------------|-----------------|-----------------|
|-----------------|-----------------|-----------------|
|-2-2-2-2-2-2-2-2-|-2-2-2-2-2-2-2-2-|-2-2-2-2-2-2-2-2-|


  PM----------|                  PM|   PM|
  e e e e e e e E   +W           e e E e e E E E
|-----------------|------------|-----------------|
|-----------------|------------|-----------------|
|---------------7-|-(7)--------|-----7-----------|
|---------------7-|-(7)--------|-----7-----------|
|-----------0-3-5-|-(5)--------|-5-5-5-5-5-5-4-2-|
|-2-2-2-2-2-------|------------|-----------------|


   ~~~                                  PM-|   PM  PM  PM
  +H.      E E   +Q.    E  +Q.    E     E  E E E E E E E
|--------------|---------------------|-------------------|
|--------------|---------------------|-------------------|
|------------9-|-(9)---10-(10)-------|-------2---1---2---|
|------------9-|-(9)---11-(11)-------|-------2---2---2---|
|-(2)--------7-|-(7)----8--(8)---(x)-|-(x)---------------|
|--------------|------------------2--|--2--2---2---2---2-|


                   1.
  PM|   PM          PM|   PM  PM      PM|   PM|
  E e E E E E E E   e e E E E E E E   e e E S S E E E E
|-----------------|-----------------|--------------------||
|-----------------|-----------------|-------------------o||
|-----2---4-2-1---|-----2---1---2---|-----2-----4-2-1----||
|-----2---4-2-2---|-----2---2---2---|-----2-----4-2-2-4--||
|-----------------|-----------------|-----------------4-o||
|-2-2---2-------2-|-2-2---2---2---2-|-2-2---2-2-------2--||


  2.
  PM|   PM  PM      PM|   PM          PM|   PM  PM      PM|   PM
  e e E E E E E E   e e E E E E E E   e e E E E E E E   e e E E E E E E
|-----------------|-----------------|-----------------|------------------|
|-----------------|-----------------|-----------------|------------------|
|-----2---1---2---|-----2---4-2-1---|-----2---1---2---|-----2---4-2-1----|
|-----2---2---2---|-----2---4-2-2---|-----2---2---2---|-----2---4-2-2----|
|-----------------|---------------x-|-----------------|---------------4--|
|-2-2---2---2---2-|-2-2---2-------2-|-2-2---2---2---2-|-2-2---2-------2--|


  Gtr II
  |----------10:8-----------|  |----------10:8------------|
  S  S  S S  S  S  S  S  S  S  S  S  S  S  S  S  S  S  S  S
|---------9-10-12-13----------10-11-13S14----------11-12-14S|
|-9h10h12------------10-11-13-------------11-12-14----------|
|-----------------------------------------------------------|
|-----------------------------------------------------------|
|-----------------------------------------------------------|
|-----------------------------------------------------------|


   |---------10:8----------|  |----------10:8------------|
   S  S  S  S  S  S  S  S  S  S  S  S  S  S  E  S  S  S  S
|-15----------12-13-15-16----------13-14-16S17-14-15-17-19--||
|----12-13-15-------------13-14-16--------------------------||
|-----------------------------------------------------------||
|-----------------------------------------------------------||
|-----------------------------------------------------------||
|-----------------------------------------------------------||


 Guitar Solo
                                                                                           ~~~~
           |--------------------------------11:8---------------------------------|
   Q       S      S      S      S      S      S      S      S      S      S      S        +Q
|---------------------------------------------------------------------------------------------|
|-19pb21--19pb21-19pb21-19pb21-19pb21-19pb21-19pb21-19pb21-19pb21-19pb21-19pb21-19pb21===(19)-|
|---------------------------------------------------------------------------------------------|
|---------------------------------------------------------------------------------------------|
|---------------------------------------------------------------------------------------------|
|---------------------------------------------------------------------------------------------|


 ~~~~~~              ~~~~~~~~~~~~~~~~
   +H        +E      Q         E
|---------------------------------------|
|-(19)------(19)r---19pb21----19pb21----|
|---------------------------------------|
|---------------------------------------|
|---------------------------------------|
|---------------------------------------|


   +E     S  S  S  S  S  S  S  S  S  S  S  S  S  S
|--------14-16-12-16-11-16----16-14-16-12-16-11-16-|
|-(19)\--------------------14----------------------|
|--------------------------------------------------|
|--------------------------------------------------|
|--------------------------------------------------|
|--------------------------------------------------|


   S  S  S  S  S  S  S  S  S  S  S  S  S  S  S  S
|----16----16-14-16-12-16-11-16----16-------------|
|-14----12----------------------14----12-16p12----|
|----------------------------------------------14-|
|-------------------------------------------------|
|-------------------------------------------------|
|-------------------------------------------------|


    |------6-------|  |------6-------|  |------6-------|  |--3--|
    S  S  S  S  S  S  S  S  S  S  S  S  S  S  S  S  S  S  S  S  S  T  T  T  T
|-----------------------------------------------------11-16p11----------------|
|-/17h19p17s16-16h17p16s14----14-------------------12----------12----11h12h14-|
|--------------------------16----16p15p13-15p13-13----------------13----------|
|-----------------------------------------------------------------------------|
|-----------------------------------------------------------------------------|
|-----------------------------------------------------------------------------|


               |--3--| |----5-----|  |----6----| |-----7-----|
   T  T  T  T  S  S  S S  S  S S  S  S S S S S S S S S S S S S
|-12h14p12s11-11h12p11s9---------------------------------------|
|------------------------12p11p9----11p9s7h9p7---7-------------|
|--------------------------------11------------9---9p8p6-------|
|--------------------------------------------------------9p8p6-|
|--------------------------------------------------------------|
|--------------------------------------------------------------|


            |------3------|  |-----3------|
   Q       +E      +E  S  S  S     +S  E  E  S S  S  S
|----------------------------------------------9-11-12-|
|----------------------9-12------------9-11-12---------|
|-11pb13r=(11)b13-(11)------11b13-(11)-----------------|
|------------------------------------------------------|
|------------------------------------------------------|
|------------------------------------------------------|


                                                  ~~~~~~~
   |--3---|
   S  S   S   S  S  S  S  S  S  S  S  S  S  S  S  E
|-14p11------------11-12----11-14p12p11----12p11-----------|
|-------(12)-12-14-------14-------------14-------14pb16====|
|----------------------------------------------------------|
|----------------------------------------------------------|
|----------------------------------------------------------|
|----------------------------------------------------------|


   +H       E  S  S  S  S  S  S
|-------------------------------|
|-(14)r-------11----12p11-14-12-|
|----------13----13-------------|
|-------------------------------|
|-------------------------------|
|-------------------------------|


   S  S  S  S  S  S  S  S  S  S  S  S  S  S  S  S
|-11----12-11-14-11-16-11S18p16-19-18-16----18-16-|
|----14----------------------------------19-------|
|-------------------------------------------------|
|-------------------------------------------------|
|-------------------------------------------------|
|-------------------------------------------------|


                                         |--3--|
   Q        +S    S  S  S  S  S     +E   E  E  E
|----------------16-18-19-20-21b23-(21)-21-20-19-|
|-19pb21===(19)r---------------------------------|
|------------------------------------------------|
|------------------------------------------------|
|------------------------------------------------|
|------------------------------------------------|


                                                ~~
   |--3--|   |------3-------|
   E  E  E  +S   S     +E   E  S  S  S     +S   Q
|-18-17-16-(16)------------------------------------|
|---------------19b21-(19)-19-16-19----------------|
|-----------------------------------18b20-(18)-18--|
|--------------------------------------------------|
|--------------------------------------------------|
|--------------------------------------------------|


                     T             T              T
                 |------6------|   |------6-------|
   +Q    a  Q   +E   S  S  S   S   S  S  S  S  S  S
|-------13-16--(16)-19p16p14h(16)-18p16p14p12h14-19p|
|---------------------------------------------------|
|-(18)----------------------------------------------|
|---------------------------------------------------|
|---------------------------------------------------|
|---------------------------------------------------|


              T              T           T
   |-------6--------|  |------6-------|
   S  S   S   S  S  S  S  S  S  S  S  S  S  S  S  S  Q
|-16p14h(16)-18p16p14p12h14-20p16p14h16-18p15p14p12h15\--|
|--------------------------------------------------------|
|--------------------------------------------------------|
|--------------------------------------------------------|
|--------------------------------------------------------|
|--------------------------------------------------------|


                   \1/    \1/    \1/       \1/
   +E    E   +S    S     +E     +E     E   E.    S
|-(15)--12--(12)--15----(15)---(15)---11--12----11-|
|--------------------------------------------------|
|--------------------------------------------------|
|--------------------------------------------------|
|--------------------------------------------------|
|--------------------------------------------------|


                            ~~~        PM---|
   |--3--|                             |--3--|
   E  E  E   S  S  S  S  S  E.   +E    s  s  s
|----11-----------------------------------------|
|-14----12--14p12p11-12p11----------------------|
|--------------------------13---(13)------------|
|-------------------------------------------13--|
|-------------------------------------11-14-----|
|-----------------------------------------------|


   PM|
   |--3--|
   s  s  s  E       Q         +Q    +E    +E
|-------11-14pb16--14pb16====(14)--(14)r=(14)-|
|----12---------------------------------------|
|-13------------------------------------------|
|---------------------------------------------|
|---------------------------------------------|
|---------------------------------------------|


   |-------7-------|  |----6----|  |------7-------|  |-3-|
   S  S S  S  S S  S  E S  S  S S  S S S  S S  S  S  E E E
|-12p11p9---------------------------------------------------|
|---------12p11p9----11-------------------------------------|
|-----------------11------13p11p9-11p9s8--------------------|
|----------------------------------------11p9h11p(9)-8h9p8--|
|-----------------------------------------------------------|
|-----------------------------------------------------------|


   PM----|
            |-----6-----| |------7------| |------6------|
   s s s  s S S  S S S  S S S  S S S S  S S S  S S  S   S
|----------------------------------------------------------|
|------------------------------------------------9h11h(12)-|
|--------------------------------8h9p8----8s9h11-----------|
|----8-9----8h9h11p9p8----8h9h11-------11------------------|
|-11-----11------------11----------------------------------|
|----------------------------------------------------------|


   |----6-----|  |----6----| |-3-|
   S S S  S S S  S S S S S S S S S S S S S E
|-11p9p7---------------------------------------||
|--------11-9p7--------------------------------||
|---------------11p9p8h9p8s6---------------6b8-||
|----------------------------8-6s5-6---5-------||
|----------------------------------------------||
|----------------------------------------------||


 Interlude
  Gtr II
                                               |-------3--------|
  +W                    +S  E     S S E     S  Q       Q        Q
|---------------------|-----------------------------------------------|
|---------------------|-----------------------------------------------|
|-(6)pb8==============|=(6)-6pb8======6pb8=====6pb8====6pb8=====6pb8==|
|---------------------|-----------------------------------------------|
|---------------------|-----------------------------------------------|
|---------------------|-----------------------------------------------|
|
| Gtr I
|            PM----|
|  H         e e e e     E        E E E     E  E     E        E
|---------------------|-----------------------------------------------|
|---------------------|-----------------------------------------------|
|---------------------|-----------------------------------------------|
|---------------------|------------------------------8--------9-------|
|------------------6--|---------------------6-11----------------------|
|------------4-6-7----|-----------4-6-7-------------------------------|
|
| Gtr III
|          W                H     Q                  E        E
|---------------------|------------------------------9h======11-------|
|---------------------|-----------------------------------------------|
|---------------------|-----------------------------------------------|
|---------------------|-----------------------------------------------|
|---------------------|-----------------------------------------------|
|---------------------|-----------------------------------------------|


                            ~~~~
   +E  +E  E    +E   +H    +H       H
|------------------------|------------|
|------------------------|------------|
|--(6)r(6)p4b6==(4)--(4)-|-(4)r-------|
|------------------------|------------|
|------------------------|------------|
|------------------------|------------|
|
|          ~~~~
|   E   E  H.                     W
|------------------------|------------|
|--11S=12--9-------------|------------|
|------------------------|------------|
|------------------------|------------|
|------------------------|------------|
|------------------------|------------|
|
|   ~~~~~
|  +W                             W
|-(11)-------------------|------------|
|------------------------|------------|
|------------------------|------------|
|------------------------|------------|
|------------------------|------------|
|------------------------|------------|


  Gtr II
                     PM------|
      W           E  e e e e e  E  E
|---------------|---11-9-7-5-7-------|
|---------------|---------------9s11-|
|---------------|--------------------|
|---------------|--------------------|
|---------------|--------------------|
|---------------|--------------------|
|
| Gtr I
|       PM------------------------|
| H     E e e e   e  e e e e e  e  e
|---------------|--------------11--9-|
|---------------|------------9-------|
|---------------|----------8---------|
|---------------|------8-9-----------|
|-------------4-|-6-11---------------|
|-------x-6-7---|--------------------|


                        ~~~~~~~~~
   +Q            E   E +H    +H                H
|--------------------------|-----------------------|
|-(11)----------12---------|-----------------------|
|--------------------9-(9)-|-(9)-------------------|
|--------------------------|-----------------------|
|--------------------------|-----------------------|
|--------------------------|-----------------------|
|
|                                         \1/  \1/
|                    ~
|   E   E  E  E  E E Q       +E   E  E E  Q    Q
|---7--12-11-12-11-9-9-----|-(9)-------------------|
|--------------------------|-----12-11-9s11s==12---|
|--------------------------|-----------------------|
|--------------------------|-----------------------|
|--------------------------|-----------------------|
|--------------------------|-----------------------|


                     PM-------------------
      W           E  e  e  e  e  e  e  e
|---------------|------------------------|
|---------------|----9-11-12-11--9--7----|
|---------------|----------------------9-|
|---------------|------------------------|
|---------------|------------------------|
|---------------|------------------------|
|
|                                >
|       PM-------------------------|
| H     e e e e   e  e  e  e  e  e  e  E
|---------------|------------------------|
|---------------|------------------11-12-|
|---------------|-------------8-13-------|
|---------------|-------8--9-------------|
|---------------|-6-11-------------------|
|-------4-6-7-9-|------------------------|


 -------|               ~~~
   e     e     Q       +H
|------------------------------------------------|
|--9-----7-----9-------(9)-----------------------|
|------------------------------------------------|
|------------------------------------------------|
|------------------------------------------------|
|------------------------------------------------|
|
|  PM-----------------------------------------|
|  s  s  s  s  s  s  s  s   s  s  s s  s  s s s
|------------------------------------------------|
|-14-12-11----12p11--------11--------------------|
|----------13-------13-11-----13-11-x-13-11-9-6--|
|------------------------------------------------|
|------------------------------------------------|
|------------------------------------------------|


  >
       PM-------------|
  |-3--| |--3---| |-3--|
  Q    e e e    e e e  e   Q     W                  W
|------------------------------|------------------|-----------------------|
|------------------------------|------------------|-----------------------|
|------------------------------|------------------|-----------------------|
|-----11-8-9---11-8-9-(8)------|------------------|-----------------------|
|------------------------------|------------------|-----------------------|
|------------------------------|------------------|-----------------------|
|
|            PM-------|~~~~~~~     PM-------------------------------|
|                 |-3--|
| E E    E   e    e e  e  +Q     E e E e e  e e e   e e  e  e  e  e  e  E
|------------------------------|------------------|-----------------------|
|-x----------------------------|------------------|---9-12-14-12-11-------|
|---x--------------------------|------------------|-8---------------13-13-|
|------------9----8-9--8--(8)--|--------------8-9-|-----------------------|
|------------------------------|---------6-11-----|-----------------------|
|------------------------------|---4h6-7----------|-----------------------|


    H        Q    E     E   +H                  H             W
|-------------------------|-------------------------------|---------||
|-------------------------|-------------------------------|---------||
|-----------------------8-|-(8)---------------------------|---------||
|-----------------------8-|-(8)-----------------x\--------|---x\----||
|-----------------------6-|-(6)-----------------x\--------|---x\----||
|-------------------------|-------------------------------|---------||
|
|   ~~~~                                                      ~~~~
|  +H.         E  E               Q.    E            +H      +W
|----------------15-------|-----(15)---15-----------(15)--|-(15)----||
|----------------18b20====|======18r---18pb20=======(18)--|-(18)----||
|-(13)--------------------|-------------------------------|---------||
|-------------------------|-------------------------------|---------||
|-------------------------|-------------------------------|---------||
|-------------------------|-------------------------------|---------||


 Out-Chorus
  ~          ~~~~~~~~~~~~~         ~~~~~~~~
  Q  Q  Q  E E       +Q    Q  Q  E E   +Q   Q  Q  E E
|------------------|-----------------|--------------------|
|------------------|-----------------|--------------------|
|------------4-----|-(4)---3---------|------3--4--6-6b8===|
|-6--5--6--4-------|----------6--5-6-|-(6)----------------|
|------------------|-----------------|--------------------|
|------------------|-----------------|--------------------|
|
| ~                                ~~~~~~~~
| Q  Q  Q  E E       +Q    Q  Q  E E   +Q   Q  Q  E E
|------------------|-----------------|--------------------|
|------------------|-----------------|---------4--5-5pb7==|
|-4--3--4--6-6pb8==|=(6)r--6--4--3-4-|-(4)--6-------------|
|------------------|-----------------|--------------------|
|------------------|-----------------|--------------------|
|------------------|-----------------|--------------------|


            ~         ~                ~~~~~~~~~~~~~         ~
  +E  +E  E E +E  E E E   +Q   Q  Q  E E       +Q    Q  Q  E E
|-----------------------|--------------------|-----------------|
|-----------------------|--------------------|-----------------|
|-(6)r(6)p4-6-(6)-4-----|--------------4-----|-(4)---3---------|
|-------------------4-6-|-(6)--5--6--4-------|----------6--5-6-|
|-----------------------|--------------------|-----------------|
|-----------------------|--------------------|-----------------|
|
|           ~         ~                                      ~
| +E  +E  E E +E  E E E   +Q   Q  Q  E E       +Q    Q  Q  E E
|-----------------------|--------------------|-----------------|
|-(5)r(5)p4-5-(5)-4-----|--------------------|-----------------|
|-------------------6-4-|-(4)--3--4--6-6pb8==|=(6)r--6--4--3-4-|
|-----------------------|--------------------|-----------------|
|-----------------------|--------------------|-----------------|
|-----------------------|--------------------|-----------------|


                                 ~         ~                ~~~~~
  +Q   Q  Q  E E       +E  +E  E E +E  E E E   +Q   Q  Q  E E
|--------------------|-----------------------|--------------------|
|--------------------|-----------------------|--------------------|
|------3--4--5-5pb7==|=(5)r(5)-4-5-(5)-4-----|------------3-4-----|
|-(6)----------------|-------------------4-6-|-(6)--5--6----------|
|--------------------|-----------------------|--------------------|
|--------------------|-----------------------|--------------------|
|
|                                ~         ~
| +Q   Q  Q  E E       +E  +E  E E +E  E E E   +Q   Q  Q  E E
|--------------------|-----------------------|--------------------|
|---------4--5-5pb7==|=(5)r(5)-4-5-(5)-4-----|--------------------|
|-(4)--6-------------|-------------------6-4-|-(4)--3--4--6-6pb8==|
|--------------------|-----------------------|--------------------|
|--------------------|-----------------------|--------------------|
|--------------------|-----------------------|--------------------|


               ~                                  ~           ~
  +Q   Q  Q  E E   +Q   Q  Q  E E       +E  +E  E E +E  E  E  E
|----------------|--------------------|-------------------------|
|----------------|--------------------|-----------------x-------|
|-(4)------------|------3--4--6-6pb8==|=(6)r(6)p4-6-(6)-4-(3)---|
|------5--6--5-6-|-(6)----------------|-----------------------6-|
|----------------|--------------------|-------------------------|
|----------------|--------------------|-------------------------|
|
|              ~                                  ~           ~
| +Q   Q  Q  E E   +Q   Q  Q  E E       +E  +E  E E +E  E  E  E
|----------------|--------------------|-------------------------|
|----------------|---------4--5-5pb7==|=(5)r(5)p4-5-(5)-4-------|
|-(6)--6--4--3-4-|-(4)--6-------------|--------------------6--4-|
|----------------|--------------------|-------------------------|
|----------------|--------------------|-------------------------|
|----------------|--------------------|-------------------------|


               ~                                                             ~
  +Q   Q  Q  E E   +Q   Q  Q  E E   +Q   Q  Q  E E       +E  +E  E E +E  E E E
|----------------|----------------|--------------------|-----------------------|
|----------------|----------------|--------------------|---------------------9-|
|------------3-4-|-(4)--3---------|------3--4--6-6pb8==|=(6)r(6)p4-6-(6)-4-3---|
|-(6)--5--6------|---------6--5-6-|-(6)----------------|-----------------------|
|----------------|----------------|--------------------|-----------------------|
|----------------|----------------|--------------------|-----------------------|
|
|                                                                  ~         ~
| +Q   Q  Q  E E   +Q   Q  Q  E E   +Q   Q  Q  E E       +E  +E  E E +E  E E E
|----------------|----------------|--------------------|---------------------7-|
|----------------|----------------|---------4--5-5pb7==|=(5)r(5)p4-5-(5)-4-----|
|-(4)--3--4--6-6-|-(6)--6--4--3-4-|-(4)--6-------------|-------------------6---|
|----------------|----------------|--------------------|-----------------------|
|----------------|----------------|--------------------|-----------------------|
|----------------|----------------|--------------------|-----------------------|


  Gtr I
   ~~~~~~~~~~~~~~~~~~~~~~
  +W                 +W
|------------------|---------------------|
|-(9)--------------|-(9)-----------------|
|------------------|---------------------|
|------------------|---------------------|
|------------------|---------------------|
|------------------|---------------------|
|
| Gtr II
|  ~~~~~~~~~~~~~~~~~~~~~~
| +W                 +W
|-(7)--------------|-(7)-----------------|
|------------------|---------------------|
|------------------|---------------------|
|------------------|---------------------|
|------------------|---------------------|
|------------------|---------------------|
|
| Gtr III
|        PM  PM          PM  PM
|  Q   E E E E E E   +E  E E E a E E E E
|------------------|---------------------|
|------------------|---------------------|
|------4---3---4---|-------4---4s6s4-3---|
|------4---4---4---|-------4---4s6s4-4---|
|--6-------------6-|-(6)---------------6-|
|--4-----4---4---4-|-(4)-4---4---------4-|


   W                      W
|----------------------|---------------------|
|----------------------|---------------------|
|----------------------|---------------------|
|----------------------|---------------------|
|----------------------|---------------------|
|----------------------|---------------------|
|
|  W                      W
|----------------------|---------------------|
|----------------------|---------------------|
|----------------------|---------------------|
|----------------------|---------------------|
|----------------------|---------------------|
|----------------------|---------------------|
|
|                            PM  PM
| +Q   E S S E S S E E   +E  E E E E E E E
|----------------------|---------------------|
|----------------------|---------------------|
|------4-x-x-3-x-x-4---|-------4---6-4-3-----|
|------4-x-x-3-x-x-4---|-------4---6-4-4-----|
|-(6)----------------6-|-(6)-------------6---|
|-(4)----------------4-|-(4)-4---4-------4---|


       PM  PM          PM  PM        ~                   ~
  Q  E E E E E E   +E  E E E  E E  E E   +Q   Q   E E  E E   +Q    Q  H
|----------------|---------------------|-------------------|------------*|
|----------------|---------------------|-------------------|------------*|
|----4---3---4---|-------4---10-8------|---------10-8------|------------*|
|----4---4---4---|-------4--------11-9-|-(9)----------11-9-|-(9)--------*|
|-6------------6-|-(6)--------4--------|----------4--------|------------*|
|-4----4---4---4-|-(4)-4---4----7--6-4-|-(4)--------7--6-4-|-(4)--------*|



Duration Legend
---------------
W - whole; H - half; Q - quarter; E - 8th; S - 16th; T - 32nd; X - 64th; a - acciaccatura
+ - note tied to previous; . - note dotted; .. - note double dotted
Uncapitalized letters represent notes that are staccato (1/2 duration)
Irregular groupings are notated above the duration line
Duration letters will always appear directly above the note/fret number it represents the
duration for.  Duration letters with no fret number below them represent rests.  Multi-
bar rests are notated in the form Wxn, where n is the number of bars to rest for.  Low
melody durations appear below the staff

Tablature Legend
----------------
 h   - hammer-on
 p   - pull-off
 b   - bend
 pb  - pre-bend
 r   - bend release (if no number after the r, then release immediately)
 /\  - slide into or out of (from/to "nowhere")
 s   - legato slide
 S   - shift slide
 - natural harmonic
[n]  - artificial harmonic
n(n) - tapped harmonic
 ~   - vibrato
 tr  - trill
 T   - tap
 TP  - trem. picking
 PM  - palm muting
\n/  - tremolo bar dip; n = amount to dip
 \n  - tremolo bar down
 n/  - tremolo bar up
/n\  - tremolo bar inverted dip
 =   - hold bend; also acts as connecting device for hammers/pulls
 <> - volume swell (louder/softer)
 x   - on rhythm slash represents muted slash
 o   - on rhythm slash represents single note slash

Misc Legend
-----------
 |  - bar
||  - double bar
||o - repeat start
o|| - repeat end
*|  - double bar (ending)
 :  - bar (freetime)
 $  - Segno
 &  - Coda
Tempo markers -  = BPM(8/16=s8/s16), where s8 = swing 8ths, s16 = swing 16ths





Comments


Popular Yngwie Malmsteen tabs & chords
Icarus Dream Suite Opus 4 Bass Tabs
Magic Mirror Bass Tabs
Perpetual Bass Tabs
Allegro Tabs
Fury Tabs
Heaven Tonight Tabs
Marching Out 1 Tabs
Perpetual Tabs
Sorrow Tabs
The Seventh Sign Tabs


Song lyrics



↑ Back to top | Tablatures and chords are parodies/interpretations of the original songs. You may use it for private study, scholarship, research or language learning purposes only
© 2014 AZChords.com Contact us | Privacy policy | DMCA | Add/correct tabs | Request tabs | Top 50 tabs