>
 >
Marching Out

Marching Out Guitar Tabs

Yngwie Malmsteen - Marching Out chords, tabs, tablatures, lyrics

Guitar lessons | Add/correct | Request | Top 50 tabs Artists:  A B C D E F G H I J K L M N O P Q R S T U V W X Y Z 0-9

Marching Out Guitar Tabs – Yngwie Malmsteen

CD, Sheet music, Poster

Do you like Marching Out? Share with your friends now
TabsTabs v2
Hope you like it !
(/Distortion...)

-------14-----12------10-----9-----12------10----------|---------14---------
12--------12------12-----12----12------12------14-12-11|-12----------12-----
---11--------------------------------------------------|-----11-------------
-------------------------------------------------------|--------------------
-------------------------------------------------------|--------------------
-------------------------------------------------------|--------------------


12------10----9--15--14--12----------------|------14----12----10----9----12--
----12-----12---------------15--14--12--11-|12-------12----12----12---12-----
-------------------------------------------|---11----------------------------
-------------------------------------------|---------------------------------
-------------------------------------------|---------------------------------
-------------------------------------------|---------------------------------


---10----------|------14-----12----10----9-15-14-12------------|------------
12----14-12-11-|12--------12----12----12------------15-14-12-11|-12---------
---------------|---11------------------------------------------|-----12-11-9
---------------|-----------------------------------------------|------------
---------------|-----------------------------------------------|------------
---------------|-----------------------------------------------|------------


---------------------------|----------------------------------|-------------
---------------------------|----------------------------------|-------------
---------------------------|------------4---------4-----------|-------------
12-11-9-8-9----------------|-9------4---4----4----4-----------|-------------
------------10-9-7---------|-9------4---2----4----2-----------|-------------
-------------------10-9-7-6|-7------2--------2-------------1~-|-------------


--2------------14t----------------------------------------------------------
--2--------14t-----14t-14t--------------------------------------------------
--4------------------------16t----------------------------------------------
--4-------------------------------------------------------------------------
--2-------------------------------------------------------------------------
tap harmonics while holding chord


rhythm fig 1
---2--------2------------|
---------2-----2---------|
4-----4-----------4------|
---------------------4---|
-------------------------|
-------------------------|
continue fig 1 as rhythm under solo



                 1/2
14-12-10-------|-9b--7-7--7-9-|-9h10p9--7~------------|--------------------|
---------------|--------------|-----------------------|--------------------|
---------------|--------------|------------------11s9-|-----9p---7--s--6---|
---------------|--------------|-----------------------|--------------------|
---------------|--------------|-----------------------|--------------------|
---------------|--------------|-----------------------|--------------------|
                                   Scoop into note w/bar while sliding
                            w/bar
----------10-14-21---17---|-12s14--14-----12---10---------------------------
------12------------------|-------------------------------------------------
---11---------------------|-------------------------------------------------
12------------------------|-------------------------------------------------
--------------------------|-------------------------------------------------
--------------------------|-------------------------------------------------

                                                  w/bar
--------|------------|---------------|----------|---------------------------
--------|------------|---------------|----------|---------------------------
--------|------------|------6-----7--|--7bf-----|-6--7-p6p4h6~--------------
--------|-11~--------|---------------|----------|---------------------------
5-s-9---|------------|-9-------------|----------|---------------------------
--------|------------|---------------|----------|---------------------------


---------14---16-14-12s10--12-|-10s9-----10--|-12p9h10---12p9---10--7~|
------12----------------------|--------------|------------------------|
---11-------------------------|--------------|------------------------|
12----------------------------|--------------|------------------------|
------------------------------|--------------|------------------------|
------------------------------|--------------|------------------------|


--------------------|-----------------|-------------------------------------
--------------------|-----------------|-------------------------------------
7-s-11~------9---7--|-7bf----t12--p7~-|--7s6----7--4--6--4s6--4p2h4~--------
--------------------|-----------------|-------------------------------------
--------------------|-----------------|-------------------------------------
--------------------|-----------------|-------------------------------------


--------|---------------------------7-9s10--9p7-9-|9-s-10-10s14-14s19-19s21-
--------|-----------------------7h9---------------|-------------------------
------6-|-7-9-7h9p7p6h7---6h7h9-------------------|-------------------------
6-7-9---|---------------9-------------------------|-------------------------
--------|-----------------------------------------|-------------------------
--------|-----------------------------------------|-------------------------


21~----|-----------14~-----14---12--10--12~--11-10s9~|----------------------
-------|-------12------------------------------------|----------------------
-------|----11---------------------------------------|----------------------
-------|-12------------------------------------------|----------------------
-------|---------------------------------------------|----------------------
-------|---------------------------------------------|----------------------


9h10h12--10--9-|-10p9--7--9--7~----------|----------------------------------
---------------|------------------10--12-|-7--10----------------------------
---------------|-------------------------|--------9--11--7bf----------------
---------------|-------------------------|---------------------9~-----------
---------------|-------------------------|----------------------------------
---------------|-------------------------|----------------------------------


------------------14--p12-p10--9--10------9-------|-------------------------
--------------------------------------12-----12bf-|12--10--12--12~----------
----11------11------------------------------------|-------------------------
12------12----------------------------------------|-------------------------
--------------------------------------------------|-------------------------
--------------------------------------------------|-------------------------


-------------------------------7------7-9-----------7-9-10-7-----|----------
----------------------6s7h9-10---9h10-----10-7-9h10----------9h10|----------
--------7-------6s7h9--------------------------------------------|----------
------7---6h7h9--------------------------------------------------|----------
6h7h9------------------------------------------------------------|----------


7h9-10-7-9-10-12-9-10-12s14-10-12-14s16-12-14-16s17-14-16-17-19-16-17-------


19s21-19-17s16-19-17-16----17-16-------16-----------------------------------
------------------------19-------19-17----19-17p15-19-17-15s14-17-15--------


14s12-15-14-12s11-14p12p10--------------------------------------------------
---------------------------12p11s9s7p6--------------------------------------
---------------------------------------9p7p6--------------------------------
---------------------------------------------9p7p5p0------------------------

w/bar listen for nuances
------|--------------------------|------------------------------------------
------|--------------------------|------------------------------------------
------|--------------------------|------11----------------------------------
9s11--|-11----9---11----9---11---|-9-11-----9--9--9h11p9-----16-------------
------|--------------------------|------------------------17----------------
------|--------------------------|------------------------------------------


-------14--19p14----21------------------------------------------------------
-----------------15----15-19-15h17------------------------------------------
---16-----------------------------------------------------------------------
17--------------------------------------------------------------------------





Comments


Popular Yngwie Malmsteen tabs & chords
Amadeus Quattro Valvole Tabs
Disciples Of Hell 1 Tabs
Dreaming Tabs
Gates Of Babylon Tabs
Ill See The Light Out Tonight Tabs
Leonardo Intro Tabs
Liberator Tabs
Overture 1383 Tabs
Trilogy Suite Op 5 Tabs
You Dont Remember Tabs


Song lyrics



↑ Back to top | Tablatures and chords are parodies/interpretations of the original songs. You may use it for private study, scholarship, research or language learning purposes only
© 2014 AZChords.com Contact us | Privacy policy | DMCA | Add/correct tabs | Request tabs | Top 50 tabs