» » »

Yngwie Malmsteen, Icarus' Dream Suite Tabs (ver.2)

Artists:  A B C D E F G H I J K L M N O P Q R S T U V W X Y Z # 

Icarus' Dream Suite Tabs (ver.2)

Yngwie Malmsteen Tabs
 Rating:
4/5 (4 votes)
Icarus' Dream Suite lessons Tabs too difficult? Try these video lessons and learn fast
1
                Yngwie Malmsteen "Icarus Dream Suite - Opus 4"
tune down 1/2 step
<> natural harmonic



|-------------------|------------|------------|-----------|--------|-------|
|-------------------|------------|------------|-----------|--------|-------|
|----------7--------|-9----------|-------7----|-5---------|------7-|---9---|
|--5-------7--------|-9----------|-5-----7----|-5---------|-5----7-|---9---|
|--5-------5---xs---|-7------7s--|-5-----5----|-3---------|-5----5-|---7---|
|--3-----------xs---|-0----------|-3----------|-------8s--|-3------|---0---|


|------------------------h15t17t19--t19p17p15p12---------------------------|
|--5h8t12-t17-t20p17p12-----------------------------------t12--------------|
|-------------------------------------------------------------t12---t9-----|
|--------------------------------------------------------------------------|
|--------------------------------------------------------------------------|
|--------------------------------------------------------------------------|


|-------------------------|---------------|--------------------------------|
|--12~--------------------|---------------|------13~---12------------------|
|----------14p12s11-------|---------------|----x-----------14-12-14p12s11--|
|---------------------14--|-14p13~--------|--x-----------------------------|
|-------------------------|---------------|--------------------------------|
|-------------------------|---------------|--------------------------------|

           1/2
|----------------------------------------|---------------------------------|
|--------------------t11p9-t11p9-t11p9~--|-15s17--17~---15-17-13-15-12-----|
|-11~-----11b----9~----------------------|---------------------------------|
|----------------------------------------|---------------------------------|
|----------------------------------------|---------------------------------|
|----------------------------------------|---------------------------------|


|-------------------------------8-10-|-10~--------8-10p7s8-----------------|
|-13~----13~---------11-8-10-12------|--------------------------10~--------|
|--------------9-8-9-----------------|-------------------------------------|
|------------------------------------|-------------------------------------|
|------------------------------------|-------------------------------------|
|------------------------------------|-------------------------------------|


|--------------------------------------------|---------------------|-------|
|-s12~--12--12--------------------------10-12|13~---12-13-10-12-8~-|-s10~--|
|-------------------------------9-11-12------|---------------------|-------|
|-----------------------9-10-12--------------|---------------------|-------|
|---------------9-10-12----------------------|---------------------|-------|
|--------------------------------------------|---------------------|-------|


|----------------------------|------------------14-14s17s20~-|12-14-15-14h15
|-12~------------------------|------------12s16--------------|--------------
|------14~--12h14p12s11------|---------11--------------------|--------------
|------------------------14--|-14~--13-----------------------|--------------
|----------------------------|-------------------------------|--------------
|----------------------------|-------------------------------|--------------


-p14p12-11-12-|-10~--10-13-13--12-10--|--------------12-|------------12----|
--------------|-----------------------|-13~----10-13----|-12~--s8-12-------|
--------------|-----------------------|-----------------|------------------|
--------------|-----------------------|-----------------|------------------|
--------------|-----------------------|-----------------|------------------|
--------------|-----------------------|-----------------|------------------|


|----------------------|-------------------|-------------------------------|
|-10~--10-12-13~-12-10-|-8~--8-10h12--10-8-|-8h10p8s7~--7-8-8h10p8s7~------|
|----------------------|-------------------|-------------------------------|
|----------------------|-------------------|-------------------------------|
|----------------------|-------------------|-------------------------------|
|----------------------|-------------------|-------------------------------|

       1/2                                              1 1/2
|--------------------------12-11-12-14-15s17s19~--------21b~---------------|
|-----------------------12------------------------17-----------------------|
|--9~-------------11-12----------------------------------------------------|
|------9b------14----------------------------------------------------------|
|-----------14-------------------------------------------------------------|
|--------------------------------------------------------------------------|

acoustic guitar

|-------0--3-----2~-------------|----------2-----0-----------2h3p2p0-------|
|----0--------0-------3~--------|-------3-----------1------0-----------3---|
|---------------------------2---|----2--------0---------0------------------|
|-------------------------------|------------------------------------------|
|-------------------------------|------------------------------------------|
|-0-----------------------------|-0----------------------------------------|


Volume  swells

|---------------15---12---19---|-(19)~-------------------------------------|
|------------------------------|-------------------------------------------|
|------------------------------|-------------------------------------------|
|------------------------------|-------------------------------------------|
|------------------------------|-------------------------------------------|
|------------------------------|-------------------------------------------|
|                              |                                           |
| acoustic guitar              |                                           |
|--------0--3-----2~-----------|-------------2-----0--------------2h3p2p0--|
|----0---------0------3~-------|----------3-------------1------0----------3|
|--------------------------2---|-------2--------0-----------0--------------|
|------------------------------|-------------------------------------------|
|------------------------------|-------------------------------------------|
|-0----------------------------|--0----------------------------------------|


|-----------------------------------|--------------------------------------|
|-------16------14------12----------|-12------------12~--------------------|
|-----------------------------------|---------13---------------------------|
|-----------------------------------|--------------------------------------|
|-----------------------------------|--------------------------------------|
|-----------------------------------|--------------------------------------|
|                                   |                                      |
|                                   |                                      |
|-----------------------------------|-----0---5p4-0-------------0----------|
|-------2-4----------------4--------|---0---0-------0-----0---0---0--------|
|-----4-----4----------4-----4------|-------------------1---1--------------|
|---4---------4------4---------4----|--------------------------------------|
|-2-------------2--0-----0-------0--|--------------------------------------|
|-----------------------------------|-4---------------0--------------------|


|---------------------------------|-10-------------------------------------|
|--13-----12-----10---------------|----------------10~---------------------|
|---------------------------------|---------11-----------------------------|
|---------------------------------|----------------------------------------|
|---------------------------------|----------------------------------------|
|---------------------------------|----------------------------------------|
|                                 |                                        |
|                                 |                                        |
|-----------0--------------0------|----------2h3p2-------------------------|
|-------0-1---1--------0-1---1----|----------------3------<7>--------------|
|-----2--------------2------------|------2------------<7>-----<7>----------|
|---2--------------2--------------|----0---0-----------------------0--2----|
|-0-------------------------------|----------------------------------------|
|----------------3-------------3--|--2-------------------------------------|


|-----------------------------------|--------------------------------------|
|-----10--------8---------6---------|--5--------6h8------6~----------------|
|-----------------------------------|--------------------------------------|
|-----------------------------------|--------------------------------------|
|-----------------------------------|--------------------------------------|
|-----------------------------------|--------------------------------------|
|                                   |                                      |
|                                   |                                      |
|---------5-----------------5-------|--------------0--------1---------1----|
|-----6-----6-----------5h6---6-----|----2-------2--------3---------3------|
|---5---5-----5-------7-------------|----------2--------2---------2--------|
|-3-------------3---7-----------7---|-----------------0--------------------|
|-----------------5-----------------|-0-----4------------------3-----------|
|-----------------------------------|--------------------------------------|


|--------------------------------|-----------------------------------------|
|--------------------------------|-----------------------------------------|
|---------10-----9--------7------|--7-------6------9-------8---------------|
|--------------------------------|-----------------------------------------|
|--------------------------------|-----------------------------------------|
|--------------------------------|-----------------------------------------|
|                                |                                         |
|                                |                                         |
|------------------------4-----0-|-----5-------5-------7-------7-----------|
|----------3-----------5-----3---|---5-------5-------7---7---7---7---------|
|-----3------3-------4-----1-----|-7-----7-6-----6-9-------8---------------|
|---3---3------3-----------------|-----------------------------------------|
|-1--------------0---------------|-----------------------------------------|
|------------------4-------------|-----------------------------------------|
                                     
                                    
|-----------------------------|
|--8--------------------------|
|--9--------------------------|
|-----------------------------|
|-----------------------------|
|-----------------------------|
|                             |
|                             |
|------0-3----2~--------------|
|----0-----0-------3~---------|
|-----------------------2-----|
|-------------------
            
Submit corrections

comments powered by Disqus
↑ Back to top | Yngwie Malmsteen Tabs for Icarus' Dream Suite. Lyrics for acoustic guitar and electric guitar. 1 Tablatures and chords are parodies/interpretations of the original songs. You may use it for private study, scholarship, research or language learning purposes only