>
 >
Heaven Tonight

Heaven Tonight Guitar Tabs

Yngwie Malmsteen - Heaven Tonight chords, tabs, tablatures, lyrics

Guitar lessons | Add/correct | Request | Top 50 tabs Artists:  A B C D E F G H I J K L M N O P Q R S T U V W X Y Z 0-9

Heaven Tonight Guitar Tabs – Yngwie Malmsteen

CD, Sheet music, Poster

Do you like Heaven Tonight? Share with your friends now
TabsTabs v2
tune down 1/2 step Eb Ab Db Gb Bb Eb

|-----------------------------|---------------------------|--------------|
|-----------------------------|---------------------------|--------------|
|-9--------9--------9-----7---|----7~------7--7--7--------|-5--------5---|
|-9--------9--------9-----7---|----7~------7--7--7--------|-5--------5---|
|----7-----------7------------|---------------------------|--------------|
|----0--0-----0--------0------|-0------0------------0--0--|----0--0------|

-----------------|-----------------------------|
-----------------|-------------8--7-----7------|
-----5-----5--7--|-7--7--------7--7--9--7------|
-----5-----5--7--|-7--7--------7--7--7--7------|
-----------------|-----------------------------|
--0-----0--------|---------0-------------------|

|----------------------|------------------|-----------------------------|
|----------------------|------------------|-----------------------------|
|--9/11----------------|------------------|-----------------------------|
|----------------------|------------------|-----------------------------|
|----------------------|------------------|-----------------------------|
|----------------------|------------------|-----------------------------|

|------------|
|------------|
|------------|
|------------|
|------------|
|------------|

|--------------------|------------------|--------------|-10-9-7----------|
|--------------------|------------------|--0-----------|--------10-9-7-6-|
|--------------------|--2---------------|--1-----------|-----------------|
|--------4--2--------|--------------2---|--------------|-----------------|
|--------------4--0--|--0--0--2--4--2---|-------8------|-----------------|
|-x--x---------------|--------------0---|--------------|-----------------|

------------------|
------------------|
-7-6--------------|
------7-6-9-------|
------------9-8---|
------------------|

|------------------------------------------------------------------------|
|------------------------------------------------------------------------|
|------------------------------------------------------------------------|
|------------------------------------------------------------------------|
|--9~hold-througout------------------------------------------------------|
|------------------------------------------------------------------------|

|-----------------------|---------------|----------------|--------------|
|-----------------------|---------------|-------9--------|--------------|
|-----------------------|---------------|-------9--------|--------------|
|----------4--2------2--|-2-------------|-------9--------|--------------|
|-9--------------4\--0--|-0----2--4-----|-------------8--|---(8)--------|
|----12\----------------|------------0--|-0--0-----------|--------------|

|--------|-----------------|------------|-------------------10p9p7-------|
|-7--5---|-3--5---5bf---2--|------------|------------7h9h10--------10p9--|
|-7--6---|-4--6---6bf---2--|--4----2----|------6h7h9---------------------|
|--------|-----------------|------------|6h7h9---------------------------|
|--------|-----------------|--7----5----|--------------------------------|
|--------|-----------------|------------|--------------------------------|

------------------------------|
-p7---------------------------|
----10p9p7--------------------|
------------11p9p7------------|
--------------------11p9p8----|
------------------------------|

|-----------------|------------|-----------|----------------------------|
|-----------------|------------|-----------|----------------------------|
|-9/11------------|------------|-----------|----------------------------|
|-----------------|------------|-----------|--------------4/14\---------|
|-----------------|------------|-----------|----------------------------|
|-----------------|------------|-----------|----------------------------|

|-----------------|------------------|-----------------------|----------|
|-----------------|-------------9----|-------------9---------|----------|
|-----------------|-------------9----|-------------9---------|----------|
|-2/4--4--2-------|-------------9----|-------------9---------|----------|
|------------4\0--|-~--0--2--4--7----|-------------7------8--|----------|
|-----------------|------------------|-0--0--0--0-----0------|----------|

|------------------|------------------------|---------------|--1---------|
|-2----------------|------------------------|---------------|--2-2-------|
|-2----------------|------------------------|---------------|1------1-1--|
|-4----4--2--------|------------------------|---------------|------------|
|-4----------4--0--|-0~w/bar---0--2--4--2---|---------------|------------|
|-2----------------|--------------------0---|-0--0--0--0--1-|------------|

Guitar solo

|-------------------------------14-16----14-16-17-14-16-17-19-16-17-19-21bf|
|-------------------13h14-16-16-------17-----------------------------------|
|----------13-14-16--------------------------------------------------------|
|-13h14-16-----------------------------------------------------------------|
|--------------------------------------------------------------------------|
|--------------------------------------------------------------------------|

|-rb21~-------------------|-------------19----17----17p16----------16----|
|--------x--17--19--17bf--|-rb17--17-16----16----19-------19-17p16----19-|
|-------------------------|----------------------------------------------|
|-------------------------|----------------------------------------------|
|-------------------------|----------------------------------------------|
|-------------------------|----------------------------------------------|

-----------------|---------------------------------|----------------------|
-17p16-----17p16-|-------16-17------------------14-|----------------------|
-------18--------|-18-18-------18---16bf--rb16-----|-16~---------13----13-|
-----------------|----------------x----------------|-------11/14----14----|
-----------------|---------------------------------|----------------------|
-----------------|---------------------------------|----------------------|

--16p12------------|-----------------16-21~--0---14-16-16b--16b-|-rb16---|
-------------------|--------------17----------------------------|--------|
-------------------|-----------18-------------------------------|--------|
---------17p14p13--|-----14-18----------------------------------|--------|
-------------------|--16----------------------------------------|--------|
-------------------|--------------------------------------------|--------|

--14--16p14----------17--|--16-t17-14-t17-12-t17-11-t17-9-t17-17-t16-5---|
-------------17bf--------|-----------------------------------------------|
-------------------------|-----------------------------------------------|
-------------------------|-----------------------------------------------|
-------------------------|-----------------------------------------------|
-------------------------|-----------------------------------------------|

--t14--4--t5--|-4---------------4h5h7-9p8p7-|--------11p9p7--------11p9/11-|
--------------|----7------4h5h7-------------|-10p9-9--------10p9p7---------|
--------------|-----------------------------|------------------------------|
--------------|-----------------------------|------------------------------|
--------------|-----------------------------|------------------------------|
--------------|-----------------------------|------------------------------|

-12--14p12p11-----16-----|-14-12-11-14----11--9h11--11--9-11-12-9-------|
--------------14------12-|-------------12-------------------------------|
-------------------------|----------------------------------------------|
-------------------------|----------------------------------------------|
-------------------------|----------------------------------------------|
-------------------------|----------------------------------------------|

|-------------------------------|---------------------------------------|
|-9-----------------------------|---------------------------------------|
|----8b--rb8--------------------|---------13p11p9h11--13----13p11h9h11--|
|-------------11/13-9-----------|---------------------------------------|
|-------------------------11p9--|--11p9---------------------------------|
|-------------------------------|---------------------------------------|

|--------------------------------------|--------------------------------|
|--------------------------------12-14-|-14/16--16-----14h16h17---------|
|-13--13p11p9h11--13p11p9h11-13--------|--------------------------------|
|--------------------------------------|--------------------------------|
|--------------------------------------|--------------------------------|
|--------------------------------------|--------------------------------|

|--14---------21-----------------|--------------------------------------|
|------16p14---------21--19--19--|--17--17--16--14--16------------------|
|--------------------------------|--------------------------------------|
|--------------------------------|--------------------------------------|
|--------------------------------|--------------------------------------|
|--------------------------------|--------------------------------------|

|----------|-------------|-------------|----------------------------9h10p9-|
|----------|-------------|-------------|--------------------9h11h12--------|
|----------|-------------|-------------|---------------9h11----------------|
|----------|-------------|-------------|-------9h11h12---------------------|
|----------|-------------|-------------|-11h12-----------------------------|
|----------|-------------|-------------|-----------------------------------|

----------------------------|------------------------------9h10p9---------|
12p10p9---------------------|-----------------------9p0h12--------12p10p9-|
--------11p10---------------|-----------------9h11------------------------|
--------------12p11p9-------|---------9h11h12-----------------------------|
-----------------------12---|-9h10h12-------------------------------------|
----------------------------|---------------------------------------------|

----------------------|
----------------------|
-11p10----------------|
-------12p11p9--------|
---------------12p11--|
----------------------|

Notation used:
h-hammer on
p-pull off
b-bend
~-vibrato
t-tapping
/-slide
x-muted note
(8)-ghost note





Comments


Popular Yngwie Malmsteen tabs & chords
Stronghold Bass Tabs
Forever Is A Long Time Tabs
General Hospital Tabs
I Am A Viking Tabs
I'll See The Light Tonight Tabs
Ill See The Light Out Tonight Tabs
Like An Angel Tabs
Save Our Love 1 Tabs
Trilogy Suite Op 5 2 Tabs
Unholy Virginity Tabs


Song lyrics



↑ Back to top | Tablatures and chords are parodies/interpretations of the original songs. You may use it for private study, scholarship, research or language learning purposes only
© 2014 AZChords.com Contact us | Privacy policy | DMCA | Add/correct tabs | Request tabs | Top 50 tabs