>
 >
Demon Driver 1

Demon Driver 1 Guitar Tabs

Yngwie Malmsteen - Demon Driver 1 chords, tabs, tablatures, lyrics

Guitar lessons | Add/correct | Request | Top 50 tabs Artists:  A B C D E F G H I J K L M N O P Q R S T U V W X Y Z 0-9

Demon Driver 1 Guitar Tabs – Yngwie Malmsteen

CD, Sheet music, Poster

Do you like Demon Driver 1? Share with your friends now
TabsTabs v2
Yngwie Malmsteen - Demon Driver
tune down 1/2 step

|----------|----------------------|--------------------|-----------------
|----------|----------------------|--------------------|-----------------
|----------|-------------5--------|-4------------------|-------9---------
|----------|-------------7--------|-5--------7~--5--7--|-------7---------
|----------|-0--0--0--0-----0--0--|----0--0---------0--|-0--0-----0--0---
|---12\----|----------------------|--------------------|-----------------



-----------|-------------------------|-------------------------|---------
-----------|-------------------------|-------------------------|---------
-10--------|-7--------9--------------|-------9--------5--------|-4-------
--7--------|-7--------7--------------|-------7--------7--------|-5-------
-----0--0--|----0--0-----0--0--0--0--|-0--0-----0--0-----0--0--|----0--0-
-----------|-------------------------|-------------------------|---------



------------|------------|--------------|----------------------|---------
------------|--6--5~-----|--5--3----3---|----------------------|---------
------------|--7--5~-----|--5--4----4---|----9--------5--------|-4-------
--7~--------|--7--5~-----|--5--5----5---|----7--------7--------|-5-------
------0--0--|------------|--------------|-0-----0--0-----0--0--|----0--0-
------------|------------|--------------|----------------------|---------



------------|---------------------------|-------------------------------|
------------|---------------------------|-------------------------------|
------------|--------9--------10--------|--7--------9-------------------|
--7~--0h2---|--------7---------7--------|--9--------7-------------------|
------0-----|--0--0-----0--0------0--0--|-----0--0-----0--0--0--0-------|
------------|---------------------------|-------------------------------|



|-------------------------|----------------|-------------|--------------|
|-------------------------|----------------|--6----5~----|--5--3--------|
|-------9--------5--------|-4--------------|--7----5~----|--5--4--4-----|
|-------7--------7--------|-5--------7~----|--7----5~----|--5--5--5-----|
|-0--0-----0--0-----0--0--|----0--0--------|-------------|--------------|
|-------------------------|----------------|-------------|--------------|



|-----------------------|-------------------|---------------------------|
|-----------------------|-------------------|---------------------------|
|----9--------5---------|-4-----------------|-------9--------10---------|
|----7--------7---------|-5--------7~--5h7--|-------7---------7---------|
|-0-----0--0-----0--0---|----0--0-----------|-0--0-----0--0------0--0---|
|-----------------------|-------------------|---------------------------|



|-------------------------|-------------------------|-------------------|
|-------------------------|-------------------------|-------------------|
|-7--------9--------------|----------------5--------|-4-----------------|
|-9--------7--------------|-------9--------7--------|-5--------7~--5h7--|
|----0--0-----0--0--0--0--|-0--0--7--0--0-----0--0--|----0--0-----------|
|-------------------------|-------------------------|-------------------|



|---------------|------------------|
|---6----5------|---5----3----3----|
|---7----5------|---5----4----4----|
|---7----5------|---5----5----5----|
|---------------|------------------|
|---------------|------------------|

Verses

||----------------|--------------|------------|--------------------------|
||----7-----8-----|---5----------|---7--------|--------------------------|
||o---7-----7-----|---6----------|---7--------|--------------------------|
||o---9-----9-----|---7----------|---9--------|----9--7------------------|
||----------------|--------------|------------|----------10--9--7--------|
||----------------|--------------|------------|-7------------------10--9-|



|----7------------|--------------|-------------|------------------------|
|----7------8-----|--------------|-------------|------------------------|
|----7------7-----|--------------|--9----------|---11-------------------|
|-----------9-----|--------------|--9----------|---11-------------------|
|-----------------|--------------|-------------|------------------------|
|-----------------|--------------|-------------|------------------------|



|-----------------|----------------|--------------|---------------------|
|---7-------8-----|---------5------|------7-------|---------------------|
|---7-------7-----|---------6------|------7-------|---------------------|
|---9-------9-----|---------7------|------9-------|----9--7-------------|
|-----------------|----------------|--------------|----------10-9-7-----|
|-----------------|----------------|--------------|-7---------------10-9|



|----------------|----------|-----/15p14p12-|----------------------------
|---7-------8----|----------|---------------|-15p14p12\11----------------
|---7-------7----|----------|---------------|-------------12p11p9--------
|---9-------9----|----------|---------------|---------------------12p11p9\8
|----------------|----------|-7~------------|----------------------------
|----------------|----------|---------------|----------------------------


Chorus

|----------------------|-------------------|----------------------------|
|----------------------|-------------------|----------------------------|
|----9--------5--------|-4-----------------|-------9--------10----------|
|----7--------7--------|-5--------7~--5h7--|-------7---------7----------|
|-0-----0--0-----0--0--|----0--0-----------|-0--0-----0--0------0--0----|
|----------------------|-------------------|----------------------------|



|-------------------------|-------------------------|-------------------|
|-------------------------|-------------------------|-------------------|
|-7--------9--------------|-------9--------5--------|-4-----------------|
|-9--------7--------------|-------7--------7--------|-5--------7~--5h7--|
|----0--0-----0--0--0--0--|-0--0-----0--0-----0--0--|----0--0-----------|
|-------------------------|-------------------------|-------------------|



|-------------|------------------|-------------------------------------||
|---6----5----|--5----3-----3----|-------------------------------------||
|---7----5----|--5----4-----4----|-------play chorus again------------o||
|---7----5----|--5----5-----5----|------------------------------------o||
|-------------|------------------|-------------------------------------||
|-------------|------------------|-------------------------------------||



|---------------|-----------------|-------------------------------------|
|---3----1------|--1----0---------|-------------------------------------|
|---4----2------|--2----1----2----|-------------------------------------|
|---6----2------|--3----0----2----|-------------------------------------|
|---------------|-----------------|--0dive-w/bar------------------------|
|---------------|-----------------|-------------------------------------|



Guitar Solo

||10p7-------7-9p6-------6-|-10p7-------7-9p6-------6-|-10p7-------12p9--
||-----7---7-------7---7---|------7---7-------7---7---|------7---7-------
||o------7-----------6-----|--------7-----------6-----|--------7---------
||o------------------------|--------------------------|------------------
||-------------------------|--------------------------|------------------
||-------------------------|--------------------------|------------------



----------9-|-14p10----------10-12p9---------9-|-14p10----------10-14p11-
--10---10---|-------10----10---------10---10---|-------10----10----------
-----9------|----------11---------------9------|----------11-------------
------------|----------------------------------|-------------------------
------------|----------------------------------|-------------------------
------------|----------------------------------|-------------------------



----------11-|-15p12----------12-14p11----------11--|-15p12----------12--
-12----12----|-------12----12----------12----12-----|-------12----12-----
----11-------|----------12----------------11--------|----------12--------
-------------|--------------------------------------|--------------------
-------------|--------------------------------------|--------------------
-------------|--------------------------------------|--------------------


                                                          1.
-16p13----------13-|-19p14----------14-19p14----------19-|--18p14--------
-------15----15----|-------14----14----------14----14----|--------14-----
----------16-------|----------16----------------16-------|-----------15--
-------------------|-------------------------------------|---------------
-------------------|-------------------------------------|---------------
-------------------|-------------------------------------|---------------


                       2.
----14-18p14---------||--18p14----------14-18p14----------14-|-19p14-----
-14----------14------||--------14----14----------14----14----|-------14--
----------------15--o||-----------15----------------15-------|-----------
--------------------o||--------------------------------------|-----------
---------------------||--------------------------------------|-----------
---------------------||--------------------------------------|-----------



--------18-|-21p18----------18-21~--|
-----14----|-------19----19---------|
--16-------|----------18------------|
-----------|------------------------|
-----------|------------------------|
-----------|------------------------|



|-21--21~--\--|-9----------------------|--------------|------------------
|-------------|---12p9h12p9------------|--------------|------9-----------
|-------------|--------------11p9-bf---|--9-----------|11h12---12-11p9h11
|-------------|------------------------|-----11~------|------------------
|-------------|------------------------|--------------|------------------
|-------------|------------------------|--------------|------------------



---------------------|-----------------------------------|---------------
-----9---------------|-9---------------9-----------------|----9-------9--
-h12---12-11p9h11h12-|---12-11p9h11h12---12p11p9----11~--|-11---11h12----
---------------------|---------------------------11------|---------------
---------------------|-----------------------------------|---------------
---------------------|-----------------------------------|---------------



--------------|-------------------|-------------------------------------|
--------------|----------------9--|------------9------------------------|
--12p11p9-----|--11~----/18\------|-11p9h11h12---12p11p9----11p9---11bf-|
----------11--|-------------------|----------------------11-------------|
--------------|-------------------|-------------------------------------|
--------------|-------------------|-------------------------------------|



|---9-----------------------|-------------------|-----------------------|
|-9----12p9--9--------------|-------------------|-----------------------|
|---------------11p9----11--|--9----------------|-----------------------|
|--------------------11-----|-----11~-----------|-9---------------------|
|---------------------------|------------10h11--|---11p10-9p7-7bf~------|
|---------------------------|-------------------|-----------------------|



|-12-9-11-12-14-11-12-14-16-12-14-16-17-14-|-16-17-19-16-17-19-21-17-19--
|------------------------------------------|-----------------------------
|------------------------------------------|-----------------------------
|------------------------------------------|-----------------------------
|------------------------------------------|-----------------------------
|------------------------------------------|-----------------------------


              1 1/2
------17-19-|-21b~~~----|---------||-10p7-------7-9p6-------6--|-10p7----
--21--------|-----------|---------||------7---7-------7---7----|------7--
------------|-----------|---------||o-------7-----------6------|--------7
------------|-----------|---------||o--------------------------|---------
------------|-----------|---19\---||---------------------------|---------
------------|-----------|---19\---||---------------------------|---------



---7-9p6-------6-|-10p7-------7-12p9---------9-|-14p10----------10-12p9--
-7-------7---7---|------7---7--------10---10---|-------10----10----------
-----------6-----|--------7-------------9------|----------11-------------
-----------------|-----------------------------|-------------------------
-----------------|-----------------------------|-------------------------
-----------------|-----------------------------|-------------------------



---------9-|-14p10----------10-14p11----------11-|-15p12----------12-14p11
-10---10---|-------10----11----------12----12----|-------12----12--------
----9------|----------11----------------11-------|----------12-----------
-----------|-------------------------------------|-----------------------
-----------|-------------------------------------|-----------------------
-----------|-------------------------------------|-----------------------



-----------11-|-15p12----------12-16p13----------13-|-19p14----------14--
--12----12----|-------12----12----------15----15----|-------14----14-----
-----11-------|----------12----------------16-------|----------16--------
--------------|-------------------------------------|--------------------
--------------|-------------------------------------|--------------------
--------------|-------------------------------------|--------------------


                     1.                                   2.
-19p14----------14-|-18p14----------14-18p14-----------||-18p14----------
-------14----14----|-------14----14----------14----14--||-------14----14-
----------16-------|----------15----------------15----o||----------15----
-------------------|----------------------------------o||----------------
-------------------|-----------------------------------||----------------
-------------------|-----------------------------------||----------------



--14-18p14----------14-|-19p14----------14-19p14----------14-|-21p18-----
-----------14----14----|-------14----14----------14----14----|-------19--
--------------15-------|----------16----------------16-------|-----------
-----------------------|-------------------------------------|-----------
-----------------------|-------------------------------------|-----------
-----------------------|-------------------------------------|-----------



-------14-----------------|
----------17-15p14--------|
--18~--------------16-15--|
--------------------------|
--------------------------|
--------------------------|


Chorus
dive bomb low E then end abruptly on A5



=======================================================================
h = hammeron                    Judy Letostak                         
t = tap (right hand)            The Music Shop BBS (619)423-4970 24hrs
~ = vibrato                     * = picked harmonic
bf = bend full                  tr = trill
rb = release bend               p.s. = pick scrape
dive = dive with bar            b = bend / step written over note
= repeat bar                  + = natural harmonic
========================================================================
The Music Shop BBS (619)423-4970  24hrs
Tons of music files, tab, lyrics, pictures, sound files....LORD, BRE
Falcon's Eye (interplanetary).  Internet Email and USENET. Unsigned/
Indie band support, free of cost ask for more details.





Comments


Popular Yngwie Malmsteen tabs & chords
Bad Blood Bass Tabs
Arpeggios From Hell 1 Tabs
Dont Let It End 1 Tabs
Finale Tabs
Fire Tabs
Heaven Tonight Tabs
Liar Tabs
Trilogy Tabs
Trilogy Suite Intro Tabs
Vengeance Tabs


Song lyrics



↑ Back to top | Tablatures and chords are parodies/interpretations of the original songs. You may use it for private study, scholarship, research or language learning purposes only
© 2014 AZChords.com Contact us | Privacy policy | DMCA | Add/correct tabs | Request tabs | Top 50 tabs