>
 >
Crystal Ball 1

Crystal Ball 1 Guitar Tabs

Yngwie Malmsteen - Crystal Ball 1 chords, tabs, tablatures, lyrics

Guitar lessons | Add/correct | Request | Top 50 tabs Artists:  A B C D E F G H I J K L M N O P Q R S T U V W X Y Z 0-9

Crystal Ball 1 Guitar Tabs – Yngwie Malmsteen

CD, Sheet music, Poster

Do you like Crystal Ball 1? Share with your friends now
TabsTabs v2
#------------------------------------------------------------------------------##

Yngwie Malmsteen  "Crystal Ball"


                 1/2
|--------------|--------------------------|------------------7--9----------|
|--------------|--------------------------|---------------7----------------|
|-----4--6-----|-6b----rb6~---------------|------------7-------------------|
|--4-----------|--------------------------|---------9----------------------|
|--------------|--------------------------|--------------------------------|
|--------------|--------------------------|--------------------------------|

   1/2
|--9b---rb9s12----------12p10p9-----|----------------------------10h12-----|
|-----------------------------------|-------------------11h12h14-10--------|
|-----------------------------------|----------11h12h14--------------------|
|-----------------------------------|-11h12h14-----------------------------|
|-----------------------------------|--------------------------------------|
|-----------------------------------|--------------------------------------|


|-h14----15bf----|------------|--19~----|14h15----------15----15----15----14-|
|----------------|------------|---------|------17p15-15----14----------------|
|----------------|------------|---------|------------------------16----14----|
|----------------|------------|---------|------------------------------------|
|----------------|------------|---------|------------------------------------|
|----------------|------------|---------|------------------------------------|

          1/2                                                  1/2
--------|------------------|-----------------14p10--------|----------------|
----12--|------------------|--------------12-------12-----|-12-14b-rb14p10-|
-12-----|------------------|-----11----11-------------11--|----------------|
--------|-16b-rb16p14--14s-|--12----12--------------------|----------------|
--------|------------------|------------------------------|----------------|
--------|------------------|------------------------------|----------------|


|--------------|---------------|---------------|------|-------|------|-----|
|-h12----------|---------------|---------------|------|-------|------|-----|
|-------11h14--|-------14------|---7s6-----6---|------|-------|------|-----|
|--------------|-14s16----16s--|-9-----7-7-----|-9----|--(9)--|--(9)-|-9-7-|
|--------------|---------------|---------------|------|-------|------|-----|
|--------------|---------------|---------------|------|-------|------|-----|


|-----------------------|------------|-------------------|-----------------|
|-------10--------------|------------|----10-------------|-----------------|
|--9h11----11-9----7p6--|-7--9--9s---|-11----11s9---7s6--|-6---------------|
|-----------------------|------------|-------------------|---7-9~---s------|
|-----------------------|------------|-------------------|-----------------|
|-----------------------|------------|-------------------|-----------------|


|---------------------------------|--7-------------------------------------|
|-------10------------------10bf--|----10p7------------7-------------------|
|--9s11-----11s9---7h9------------|---------10p9p7-----7-------------------|
|------------------------9--------|----------------9-------9p7-------------|
|---------------------------------|-------------------------------9--------|
|---------------------------------|----------------------------------------|


|-----------------|-----------------|-------------14--t19p14--|--(14)------|
|-----------------|-----------------|----------12-------------|------------|
|-----------------|----------11-----|-11----11----------------|------------|
|-9h11-7s9--4s7---|--9-11-12----12--|----12-------------------|------------|
|-----------------|-----------------|-------------------------|------------|
|-----------------|-----------------|-------------------------|------------|


|-------------------------|---------------------|---------------------------|
|-------------------------|---------------------|---------------------------|
|-------------------------|---------------------|---------------------------|
|-------5-----4--------7--|-5--4--5----4-----0--|-------------5--------4----|
|-------7-----5--------4--|-4--4--3----3--3-----|-------------7--------5----|
|-0--0-----0-----0--0-----|---------------------|-0--0--0--0-----0--0-------|


------------|-------------|-------------------------|----------------------|
------------|-------------|-------------------------|----------------------|
------------|--------5~---|-------------------------|----------------------|
--------7---|-5--4---5~---|-------5-----4--------7--|-5--4--5----4--2--0---|
--------4---|-4--4---3~---|-------7-----5--------4--|-4--4--3----3--3------|
--0--0------|-------------|-0--0-----0-----0--0-----|----------------------|


|--------------------------|---------------|
|--------------------------|---------------|
|--------------------------|------------5--|
|--------------------------|------------5--|
|--------------------------|------------3--|
|-0-0-0-0-0-0-0-0-0-0-0-0--|-0-0-0-0-0-----|


|-------------------------|--------------------------|
|-------------------------|--------------------------|
|-------------------------|--------------------------|
|-------5-----4-----------|----5--4--5--5--4---------|
|-------7-----5--------4--|-4-----------------7--5---|
|-0--0-----0-----0--0-----|--------------------------|


                                                          We keep it
                           fill 1
|-------------------------|--------------------------------10|h12-----------|
|-------------------------|------------------------10h12h13--|--------------|
|-------------------------|----------------9h11h12-----------|--------------|
|-------------------------|--------9h10h12-------------------|--------------|
|-------------------------|9h10h12---------------------------|--------------|
|-------------------------|----------------------------------|--------------|
|                         |                                  |
|                         |                                  |
|-------------------------|----------------------------------|--------------|
|-------------------------|----------------------------------|--------------|
|-------------------------|----------------------------------|--------------|
|-------5--------------7--|-5-4-5----------------------------|----5---4-----|
|-------7-----4--------4--|-4-4-3-3----3---3---3-------------|----7---5-----|
|-0--0-----0--5--0--0-----|----------------------------------|0-0--0----0-0-|


wrapped   in chains            locked inside a mystery

|------|-------------------------|------------------------|----------------|
|------|-------------------------|------------------------|--------5-------|
|------|-------------------------|------------------------|----------5-----|
|-7----|-------------------------|-------5-----4----------|------5-----5---|
|-4----|-4--4--4--3--3--3--3--5--|-------7-----5--------4-|7-5-4-----------|
|------|-------------------------|-0--0-----0-----0--0----|----------------|


We climb a stairway to the stars

|-------------------------|-----------------------|------------------------|
|-------------------------|-----------------------|------------------------|
|-------------------------|-----------------------|------------------------|
|-------5-----4-----------|-----------------------|-----5----4--------7----|
|-------7-----5--------4--|-4--4--4--3--3--3--3---|-----7----5--------4----|
|-0--0-----0-----0--0-----|-----------------------|0--0---0-----0--0-------|


                          Through doorways of the heart
play fill 1
|-----------------------|-------------------------|------------------------|
|-----------------------|-------------------------|------------------------|
|-----------------------|-------------------------|------------------------|
|-7---------------------|-------5-----4-----------|----5--4--5--5--4--2--0-|
|-4--3--3----3---3---3--|-------7-----5--------4--|-4----------------------|
|-----------------------|-0--0-----0-----0--0-----|------------------------|


step inside the magic starts          Gaze into my crystal ball
Chorus
|-------------------------|-----------|----------------|-------------------|
|-------------------------|-----------|----------------|-------------------|
|-------------------------|-----------|----------------|-------------------|
|-------5-----4--------7--|-5-4-5-----|-5---5--5----7--|-2-----------------|
|-------7-----5--------4--|-4-4-3-----|-2---2--3----5--|-0---0--0--0-------|
|-0--0-----0-----0--0-----|-----------|----------------|-------------------|


see what lies behind the wall    Can't you feel the wonder of it all

|----------------|----------------|----------------|-----------------------|
|----------------|----------------|----------------|-----------------------|
|----------------|----------------|----------------|-----------------------|
|-5---5-----7----|--5-------------|-5---5----------|-----7-----------------|
|-2---2-----5----|--3----2--0-----|-2---3------4---|-----5------6----------|
|----------------|-------------3--|----------------|-----------------------|


                           with my crystal ball

|-------------------------|------------------|-----------------------------|
|-------------------------|------------------|-----------------------------|
|-------------------------|------------------|-----------------------------|
|-------7-----7--------7--|-5-4-5---4--2--0--|-------5-------7--------7----|
|-------5-----9--------4--|-4-4-3------------|-------7-------5--------4----|
|-0--0-----0-----0--0-----|------------------|-0--0-----0--0----0--0-------|


|------------|
|------------|
|-------5~---|
|-5--4--5~---|
|-4--4--3~---|
|------------|


     You veil your eyes in fantasy

|------------------------|------------------------|------------------------|
|------------------------|------------------------|------------------------|
|------------------------|------------------------|------------------------|
|-------5-----4--------7-|-7--7--7--5--5--5--5--5-|-------5-----4--------7-|
|-------7-----5--------4-|-4--4--4--3--3--3--3--3-|-------7-----5--------4-|
|-0--0-----0-----0--0----|------------------------|-0--0-----0-----0--0----|


                           Let's pull the curtain back

|-------------------------|------------------------|-----------------------|
|-------------------------|------------------------|-----------------------|
|-------------------------|------------------------|-----------------------|
|-7--7--7--------5--4-----|-------5-----4--------7-|7--5--4-----5--4-------|
|-4--4--4--3--7--------7--|-------7-----5----------|---------3--------7--5-|
|-------------------------|-0--0-----0-----0--0----|-----------------------|


distant worlds so much to see

|------------------------|----------------------|
|------------------------|----------------------|
|------------------------|----------------------|
|-------5-----4--------7-|-5--4--5----4---------|
|-------7-----5--------4-|-------3-------7--5---|
|-0--0-----0-----0--0----|----------------------|


Gaze into my crystal ball      see what lies behind the wall

|----------------|--------------|---------------|--------------------------|
|----------------|--------------|---------------|--------------------------|
|----------------|--------------|---------------|--------------------------|
|-5---5------7---|-2------------|-5---5------7--|----5---------------------|
|-2---3------2---|-0---0--0--0--|-2---3------5--|----3--------2---0--------|
|----------------|--------------|---------------|---------------------3----|


Can't you feel the wonder of it all

|----------------|-----------------------|-------------------------|
|----------------|-----------------------|-------------------------|
|----------------|-----------------------|-------------------------|
|-5---5----------|-----7-----------------|-------7-----7--------7--|
|-2---3------4---|-----5------6----------|-------5-----9--------4--|
|----------------|-----------------------|-0--0-----0-----0--0-----|

                            In my crystal ball
|-----------------|-----------------------------|------------|
|-----------------|-----------------------------|------------|
|-----------------|-----------------------------|-------5~---|
|5-4-5---4--2--0--|-------5-------7--------7----|-5--4--5~---|
|4-4-3------------|-------7-------5--------4----|-4--4--3~---|
|-----------------|-0--0-----0--0----0--0-------|------------|


                                          Come on let me show you the way

|----------------|-----------------------|------------------|--------------|
|----------------|-----------------------|------------------|-------3------|
|----------------|-----------------------|------------------|-------2------|
|----------------|-----------------------|------------------|-------0------|
|--5---------5---|------------------5----|--3------------3--|-2-----0------|
|--3---------3---|----2-------------2----|--1------------1--|-0------------|


I really wanna hold you              reach out to these hands of fate

|-------------------|---------------|----------------|---------------------|
|-------------------|---------------|----------------|-----------3---------|
|-------------------|---------------|----------------|-----------2---------|
|-------------------|---------------|----------------|-----------0---------|
|-5-------------5---|-----------5---|---3---------3--|-2---------0---------|
|-3-------------3---|---2-------2---|---1---------1--|-0-------------------|


Solo

|---------|-21p18------------------18p15----12h15----15--|-----------------|
|--17~----|-------20--17-20p17-----------17-------14-----|---17-19---------|
|---------|--------------------18------------------------|-0-----------0---|
|---------|----------------------------------------------|-----------------|
|---------|----------------------------------------------|-----------------|
|---------|----------------------------------------------|-----------------|

                                                                     1 1/2
|-17p16p14-16--17bf--|-17-16-14---|-16p14----14-17-14----14-19-14-21-21b---|
|--------------------|------------|-------18----------18-------------------|
|--------------------|------------|----------------------------------------|
|--------------------|------------|----------------------------------------|
|--------------------|------------|----------------------------------------|
|--------------------|------------|----------------------------------------|


|-rb21~--------13-16-17-14------|--------------------|--------9h13p9--------|
|--------21s14-------------14---|--------------------|---------------14p12--|
|-----------------------------14|s13-----------------|----------------------|
|-------------------------------|----16-14~----14bf--|-----11---------------|
|-------------------------------|--------------------|--9-------------------|
|-------------------------------|--------------------|----------------------|


---------------------------------------|-----------------------------------|
----12h14p12----12-14p12---------------|-----------------------------------|
-14----------14-----------14p13-14p13--|-----------------------------------|
---------------------------------------|-16-14-16-14bf~--------------------|
---------------------------------------|-----------------------------------|
---------------------------------------|-----------------------------------|


|----------------------------------12-------12-14----12-14-16-12-14-16-|-17-|
|-12-------12-14-12-14-15-12-14-15----14-15-------15-------------------|----|
|----13-14-------------------------------------------------------------|----|
|----------------------------------------------------------------------|----|
|----------------------------------------------------------------------|----|
|----------------------------------------------------------------------|----|


-14-16-17-19-16-17-12-21p19-17-16-19-17-15-16-14-13-16-14-13-|--------------|
-------------------------------------------------------------|-15p14p12-----|
-------------------------------------------------------------|--------------|
-------------------------------------------------------------|--------------|
-------------------------------------------------------------|--------------|
-------------------------------------------------------------|--------------|

                                                  1/2  1/2
-----------------------------------------|----------------------------------|
-----------------------------------------|----------------------------------|
-14p13p11p10------------------------11bf-|--11bf--11b--11b---11bf-rbp10h11--|
-------------12p11p9---------------------|----------------------------------|
---------------------12p11p9p8--11-------|----------------------------------|
-----------------------------------------|----------------------------------|


--------|------------------------------------------------------------------|
--------|------------------------------------------------------------------|
-10-----|---------10-------------------------------------------------------|
----12--|-12p11p9----12p11p9--12p11p9--------------------------------------|
--------|-----------------------------12p11p9-12-11-9-8h9p8-11h12p11h12----|
--------|------------------------------------------------------------------|

                                                          1 1/2
|--------------------------9h10p9--13h14p13--16-|-16~------16b-------------|
|-------------------9h10p9----------------------|--------------------------|
|----------10h11p10-----------------------------|--------------------------|
|-11h12p11--------------------------------------|--------------------------|
|-----------------------------------------------|--------------------------|
|-----------------------------------------------|--------------------------|

             1/2
|-rb16--17---16b--rb16-14-|-17-16-14-13-14-16-16-17-16-14-13-14-16-17-14-16-|
|-------------------------|-------------------------------------------------|
|-------------------------|-------------------------------------------------|
|-------------------------|-------------------------------------------------|
|-------------------------|-------------------------------------------------|
|-------------------------|-------------------------------------------------|

                              1/2
-17-16-14-19-16-17-19-17-16-|-21b-----|-rb21~--21p17----19p16--|----17p14----|
----------------------------|---------|--------------19--------|-17-------14-|
----------------------------|---------|------------------------|-------------|
----------------------------|---------|------------------------|-------------|
----------------------------|---------|------------------------|-------------|
----------------------------|---------|------------------------|-------------|


-16-12----16p14-10----12h14p12----12----------------------|----------------|
-------12----------10----------15----15p14-15p14p12----12-|----------------|
----------------------------------------------------14----|-14p13----------|
----------------------------------------------------------|-------16~------|
----------------------------------------------------------|----------------|
----------------------------------------------------------|----------------|


|----------13-16-17-14--------------|-----------------|--------------------|
|-------14-------------14-----------|-----------------|------------------9-|
|----14-------------------17s16p14--|-13s14bf-rb14p13-|-14p13---------11---|
|-16--------------------------------|-----------------|-------16--s11------|
|-----------------------------------|-----------------|--------------------|
|-----------------------------------|-----------------|--------------------|


|--------------------------|------------------|-17h19p17s16----------------|
|-10----9---------------9--|-10-12-9h10p9-----|--------------19~-----------|
|----11------------s11-----|--------------11--|----------------------------|
|--------------------------|------------------|----------------------------|
|-----------0---x----------|------------------|----------------------------|
|--------------------------|------------------|----------------------------|

                               pedal F#5
|-17bf-----------------------|---------------------------------------------|
|----------------------------|---------------------------------------------|
|----------------------------|---------------------------------------------|
|----------------------------|---------------------------------------------|
|----------------------------|---------------------------------------------|
|----------------------------|---------------------------------------------|


  This is the moment we've been waiting for          yeah

|-----------------|--------------------|---------------|-------------------|
|--5~-------------|-------8------------|---5-----------|---4---------------|
|--5~-------------|-----6------6-------|---4-----------|---4---------------|
|--5~-------------|---8----------8-----|---4-----------|---4---------------|
|--3~-------------|-7--------------7---|---2-----------|---2---------------|
|--3~-------------|--------------------|---------------|-------------------|


Gaze into my crystal ball      see what lies behind the wall

|----------------|--------------|---------------|--------------------------|
|----------------|--------------|---------------|--------------------------|
|----------------|--------------|---------------|--------------------------|
|-5---5------7---|-2------------|-5---5------7--|----5---------------------|
|-2---3------5---|-0---0--0--0--|-2---3------5--|----3--------2---0--------|
|----------------|--------------|---------------|---------------------3----|


Can't you feel the wonder of it all

|----------------|-----------------------|-------------------------|
|----------------|-----------------------|-------------------------|
|----------------|-----------------------|-------------------------|
|-5---5----------|-----7-----------------|-------7-----7--------7--|
|-2---3------4---|-----5------6----------|-------5-----9--------4--|
|----------------|-----------------------|-0--0-----0-----0--0-----|

                            In my crystal ball
|-----------------|-----------------------------|------------|
|-----------------|-----------------------------|------------|
|-----------------|-----------------------------|-------5~---|
|5-4-5---4--2--0--|-------5-------7--------7----|-5--4--5~---|
|4-4-3------------|-------7-------5--------4----|-4--4--3~---|
|-----------------|-0--0-----0--0----0--0-------|------------|





Comments


Popular Yngwie Malmsteen tabs & chords
As Above, So Below 1 Tabs
Big Foot Tabs
Demon Driver Tabs
Farewell Tabs
Fugetta 1 Tabs
Hiroshima Mon Amour Tabs
I Am A Viking Tabs
Overture 1383 1 Tabs
Spasebo Blues Tabs
Valley Of The Kings Intro Tabs


Song lyrics



↑ Back to top | Tablatures and chords are parodies/interpretations of the original songs. You may use it for private study, scholarship, research or language learning purposes only
© 2014 AZChords.com Contact us | Privacy policy | DMCA | Add/correct tabs | Request tabs | Top 50 tabs