» » »

Yngwie Malmsteen, Cry No More Tabs (ver.2)

Artists:  A B C D E F G H I J K L M N O P Q R S T U V W X Y Z # 

Cry No More Tabs (ver.2)

Yngwie Malmsteen Tabs
 Rating:
4/5 (4 votes)
Cry No More lessons Tabs too difficult? Try these video lessons and learn fast
                Yngwie Malmsteen - Cry No More (interlude)
Off the Fire and Ice album

tune down 1/2 step

This is a really beautiful piece of guitar work.  I bought the 'official'
transcription just to learn this piece ... only to find out that it's WRONG!
Grrr, so here is, I believe a more correct version. However I'm still not
100 percent sure of some of the notes, though I think I at least got the
trills right :)

Some notes:  Most of the interlude is played at a steady rythm. I tried to
denote the trills, with the arrows (v---v).  The number represents the number
of notes played over 2 'normal' notes in this piece.


Interlude with violins:
                                                                   v-3-v
|--------------------------------------|--------------------------------------|
|-----7-8-10-7-----------8-7-8----8----|--8---8----8---8----8-5h6-5-5h6p5-----|
|-7-9----------7-------7--------7---10-|9---7-----------------------------5-6-|
|----------------10--8-----------------|--------10---8---7--------------------|
|--------------------------------------|--------------------------------------|
|--------------------------------------|--------------------------------------|

                       v--4--v             v--4--v                     v--tr--v
|--------------------------------4-3---|----------------------------3-------------|
|---6---6---6---6----6-5h6p5---------6-|5-3-2h3p2-------2---3-5-6-5---6-5h6p5h6p5-|
|-7---5----------------------7-4-------|----------4-2-4---2-----------------------|
|---------8---7---6--------------------|------------------------------------------|
|--------------------------------------|------------------------------------------|
|--------------------------------------|------------------------------------------|

                                                                v-3-v
|--------------------------------------|-----------------------------------|
|-----7-8-10-7-----------8-7-8----8----|--8---8---8---8----8-6-5-5h6p5-----|
|-7-9----------7-------7--------7---10-|9---7---5----------------------5-6-|
|----------------10--8-----------------|------------8---7------------------|
|--------------------------------------|-----------------------------------|
|--------------------------------------|-----------------------------------|

                                                                v--tr--v 
|-----------------------------4-3---|------------------------3-------------|
|---6---6---6---6----6-5----------6-|5-3-2-------2---3-5-6-5---6-5h6p5h6p5-|
|-7---5------------------7-4--------|------4-2-4---2-----------------------|
|---------8---7---6-----------------|--------------------------------------|
|-----------------------------------|--------------------------------------|
|-----------------------------------|--------------------------------------|

Enjoy!
            
Submit corrections

comments powered by Disqus
↑ Back to top | Yngwie Malmsteen Tabs for Cry No More. Lyrics for acoustic guitar and electric guitar. Tablatures and chords are parodies/interpretations of the original songs. You may use it for private study, scholarship, research or language learning purposes only