>
 >
Bad Blood 2

Bad Blood 2 Bass Tabs

Yngwie Malmsteen - Bad Blood 2 chords, tabs, tablatures, lyrics

Guitar lessons | Add/correct | Request | Top 50 tabs Artists:  A B C D E F G H I J K L M N O P Q R S T U V W X Y Z 0-9

Bad Blood 2 Bass Tabs – Yngwie Malmsteen

CD, Sheet music, Poster

Do you like Bad Blood 2? Share with your friends now
Bass TabsBass Tabs v2Tabs

BAD BLOOD (Bassline)
As recorded by Yngwie Malmsteen
(From the 1994 Album THE SEVENTH SIGN)

	

Words by Yngwie Malmsteen, Mike Vescera Music by Yngwie Malmsteen

Gtr I (Eb Ab Db Gb) - 'Untitled'

 Intro
  E=240
 6/8
  Gtr I
  W        W        W          E E E E E E
|--------|--------|--------||--------------|
|--------|--------|--------||o-------------|
|--------|--------|--------||o-0---0-0---0-|
|--------|--------|--------||--------------|


  E E E E E E   E E E E E E   E E E E E E
|-------------|-------------|---------0-0--|
|-------------|-------------|-------2------|
|-0---0-0---0-|-0---0-0---0-|-0---0--------|
|-------------|-------------|--------------|


  E E E E E E   E E E E E E   E E E E E E   E E E E E E     H.        +H.
|-------------|-------2-0---|-------------|--------------||-2-------|-(2)\----||
|-------------|-----------2-|-------------|-------------o||---------|---------||
|-0---0-0---0-|-0---0-------|-0---0-0---0-|-0---0-----3-o||---------|---------||
|-------------|-------------|-------------|-------0-3----||---------|---------||


   Verse
    E E E E E E   E E E E E E   E E E E E E   E E E E E E   E E E E E E
||--------------|-------------|-------------|-------0-2-2-|-------------|
||o-------------|-------------|-------------|-------------|-------------|
||o-0---0-0---0-|-0---0-0---0-|-0---0-0---0-|-0---0-------|-0---0-0---0-|
||--------------|-------------|-------------|-------------|-------------|


  E E E E E E   E E E E E E   E E E E E E   E E E E E E   E E E E E E
|-------------|-------------|-------------|-------------|--------------|
|-------------|-------------|---2-0-------|-------------|--------------|
|-0---0-0---0-|-0---0-0---0-|-0-----3-----|-0---0-0---0-|-0---0-0------|
|-------------|-------------|---------0-3-|-------------|---------0-3--|


  E E E E E E   E E E E E E   Q.   E E E   E E E E E E   E E E E E E
|-------------|---------0-2-|-2----------|-------------|-2-2-2-2-2-2--|
|-------------|-------2-----|------------|-------------|--------------|
|-0---0-0---0-|-0---0-------|------0---0-|-0---0-0---0-|--------------|
|-------------|-------------|------------|-------------|--------------|


                Pre-Chorus
              $
  E E E E E E    Q  E E E E   E E E E E E   E E E E E E   E E E E E E
|-2-0---------||------------|---0---0-0-0-|-2-2-2-2-2-2-|-4-4-4-4-4-4--|
|-----2-0-----||-3--3-3-3-3-|-3---3-------|-------------|--------------|
|---------3-0-||------------|-------------|-------------|--------------|
|-------------||------------|-------------|-------------|--------------|


  Q.   +E  E E   E E E Q.     E E E E E E   E Q  E Q
|-5----(5)-5-5-|-7-7-7-7----|-------------|------------||
|--------------|------------|-------------|------------||
|--------------|------------|-------------|------------||
|--------------|------------|-0-2-0-0-0-0-|-0----------||


 Chorus
  E E E E E E   E E E E E E   E E E E E E   E E E E E E   E E E E E E
|-------------|---------0-2-|-------------|---8p7-5-----|--------------|
|-------------|-------2-----|-------------|---------7---|--------------|
|-0---0-0---0-|-0---0-------|-0---0-0---0-|-0---------7-|-0---0-0---0--|
|-------------|-------------|-------------|-------------|--------------|


  E E E E E E   E E E E E E   E E E E E E   Q  E E E E   E E E E E E
|-------------|-------------|-2-0-2-5-2-0-|-2----------|--------------|
|-------------|-------------|-------------|------------|--------------|
|-0---0-0---3-|-0---0-0---0-|-------------|----0-0---0-|-0---0-0---0--|
|---------3---|-------------|-------------|------------|--------------|


                     To Coda
  E E E E E E   E E E E E E   E E E E E E   E E E E E E   E E E E E E
|-------------|-------------|-------------|-------------|--------------|
|-------------|-------------|-------------|-------------|--------------|
|-0---0-0---0-|-0-3-----0-3-|-0---0-0---0-|-0---0-0---3-|-0---0-0---0--|
|-------------|-----0-3-----|-------------|---------3---|--------------|


               1.
  E E E E E E   H.        +H.
|-------------|-2-------|-(2)-------||
|-----------2-|---------|----------o||
|-0---0-0-----|---------|----------o||
|-------------|---------|-----------||


  2.
  S S S S S S S S S S S S   S S S S S S S S S S S S
|-------------------------|---------------------2----|
|---------------------2---|---2-3---2-3-5-2-3-5---3--|
|---2-3---2-3-5-2-3-5---3-|-5-----5------------------|
|-5-----5-----------------|--------------------------|


  S S S S S S  S S S  S S S    S S S  S S S  S S S  S S S
|-----------------------7---|----9-7----------------------|
|-5-7-9-5-7-9-10-7-9-10---9-|-10-----10-9-7---------------|
|---------------------------|---------------10-8-7--------|
|---------------------------|----------------------10-8-7-|


                      Guitar Solo
  H.        H.         E E E E E E
|---------|---------||--------------|
|---------|---------||--------------|
|---------|---------||-2---2-2---2--|
|-5-------|-6-------||--------------|


  E E E E E E   E E E E E E   E E E E E E   E E E E E E   E E E E E E
|---------2-4-|-------------|---0---------|-------------|--------------|
|-------4-----|-------------|-----4---0-0-|-------------|--------------|
|-2---2-------|-2---2-2---2-|-2-----2-----|-2---2-2---2-|-2---2-2---2--|
|-------------|-------------|-------------|-------------|--------------|


  E E E E E E   E E E E E E   E E E E E E   E E E E E E   Q  E +E  S E.
|---------2-4-|-7-4-6-2-----|-------------|-------------|-4--4-(4)-2-4---|
|-------4-----|---------2-4-|-------------|-------------|----------------|
|-2---2-------|-------------|-2---2-2---2-|-2---2-2---2-|----------------|
|-------------|-------------|-------------|-------------|----------------|


  +Q.   E E E   E E E E E E   E E E E E E   E E E E E E   Q.   E E E
|-(4)---2-----|-------------|-------------|-------------|-4----4-2----||
|---------4-0-|-------------|-------0-----|-------------|----------4--||
|-------------|-2---2-2---2-|-2-0-2-------|-2---2-2---2-|-------------||
|-------------|-------------|---------2-2-|-------------|-------------||


  E E E E E E   E E E E E E   E E E E E E   E E E E E E   E E E E E E
|-------------|-------------|-------------|-------------|--------------|
|-0---0-0---0-|-0---0-0---0-|-0---0-0---0-|-0---0-------|-0---0-0---0--|
|-------------|-------------|-------------|-------0-3-3-|--------------|
|-------------|-------------|-------------|-------------|--------------|


  E E E E E E   E E E E E E   Q  E +E  E E   E E E E E E   E E E E E E
|-------------|-------------|-7--7-(7)-5---|-------------|--------------|
|-0---0-0---0-|-0---0-0---0-|------------3-|-0---0-0---0-|-0---0-0-3-3--|
|-------------|-------------|--------------|-------------|--------------|
|-------------|-------------|--------------|-------------|--------------|


  E E E E E E   E E E E E E   E E E E E E
|-------------|-7p5-7p5-7-5-|-------------|
|-0---0-0---0-|-------------|-----0-0-0---|
|-------------|-------------|-0---------0-|
|-------------|-------------|-------------|


                             D.S. al Coda
  E E E E E E   Q  E +E  E E   E E E E E E
|-----------5-|-7------------|-------------||
|-0---0-5h7---|----0-(0)---0-|-0---0-0---0-||
|-------------|--------------|-------------||
|-------------|--------------|-------------||


 Chorus
  &
  E E E E E E   E E E E E E   Q.   E E E   Q.   E E E   H.
|-------------|-------------|-0--------0-|------------|-------|
|-------------|-----------2-|------------|-4----3-2---|-------|
|-0---0-0---0-|-0---0-0-3---|------0-3---|----------3-|-0-----|
|-------------|-------------|------------|------------|-------|


  +H.        +H.        +H.        +H.        +H.        +H.
|----------:----------:----------:----------:----------:--------*|
|----------:----------:----------:----------:----------:--------*|
|-(0)------:-(0)------:-(0)------:-(0)------:-(0)------:-(0)----*|
|----------:----------:----------:----------:----------:--------*|



Duration Legend
---------------
W - whole; H - half; Q - quarter; E - 8th; S - 16th; T - 32nd; X - 64th; a - acciaccatura
+ - note tied to previous; . - note dotted; .. - note double dotted
Uncapitalized letters represent notes that are staccato (1/2 duration)
Irregular groupings are notated above the duration line
Duration letters will always appear directly above the note/fret number it represents the
duration for.  Duration letters with no fret number below them represent rests.  Multi-
bar rests are notated in the form Wxn, where n is the number of bars to rest for.  Low
melody durations appear below the staff

Tablature Legend
----------------
 h   - hammer-on
 p   - pull-off
 b   - bend
 pb  - pre-bend
 r   - bend release (if no number after the r, then release immediately)
 /\  - slide into or out of (from/to "nowhere")
 s   - legato slide
 S   - shift slide
 - natural harmonic
[n]  - artificial harmonic
n(n) - tapped harmonic
 ~   - vibrato
 tr  - trill
 T   - tap
 TP  - trem. picking
 PM  - palm muting
\n/  - tremolo bar dip; n = amount to dip
 \n  - tremolo bar down
 n/  - tremolo bar up
/n\  - tremolo bar inverted dip
 =   - hold bend; also acts as connecting device for hammers/pulls
 <> - volume swell (louder/softer)
 x   - on rhythm slash represents muted slash
 o   - on rhythm slash represents single note slash

Misc Legend
-----------
 |  - bar
||  - double bar
||o - repeat start
o|| - repeat end
*|  - double bar (ending)
 :  - bar (freetime)
 $  - Segno
 &  - Coda
Tempo markers -  = BPM(8/16=s8/s16), where s8 = swing 8ths, s16 = swing 16ths





Comments


Popular Yngwie Malmsteen tabs & chords
Baroque And Roll Bass Tabs
Deja Vu Bass Tabs
Perpetual Bass Tabs
Adagio 2 Tabs
Blue Tabs
Braveheart 2 3 Tabs
Evil Eye 1 Tabs
Icarus Dream Suite Opus 4 Tabs
Tocatta Fugue Tabs
Save Out Love Ukulele


Song lyrics



↑ Back to top | Tablatures and chords are parodies/interpretations of the original songs. You may use it for private study, scholarship, research or language learning purposes only
© 2014 AZChords.com Contact us | Privacy policy | DMCA | Add/correct tabs | Request tabs | Top 50 tabs