>
 >
Air

Air Guitar Tabs

Yngwie Malmsteen - Air chords, tabs, tablatures, lyrics

Guitar lessons | Add/correct | Request | Top 50 tabs Artists:  A B C D E F G H I J K L M N O P Q R S T U V W X Y Z 0-9

Air Guitar Tabs – Yngwie Malmsteen

CD, Sheet music, Poster

Do you like Air? Share with your friends now
TabsTabs v2
                                      Air                                       
yngwie malmsteen

                                                          
Guitar 1



                                              
D#||--------------------|--------------------|
A#||--12----------------|--12----------------|
F#||--------------------|--------------------|
C#||--------------------|--------------------|
G#||--------------------|--------------------|
D#||--------------------|--------------------|


                                                             
--------12---------------------------|----------------------|
--12--------13-----------------------|----------------------|
----------------14--12h14h12-11--12--|--11--------9--7------|
-------------------------------------|----------------------|
-------------------------------------|----------------------|
-------------------------------------|----------------------|


                                                                         
--------------------|------------------------------|--------------------|
--15----------------|----------------------15--13--|--13----------------|
--------------------|--------------14--13----------|--------------------|
--------------------|------15--14------------------|--------------------|
--------------------|------------------------------|--------------------|
--------------------|------------------------------|--------------------|


                                                          
------------------------------|--------------------------|
----------------------13--12--|--12--------------14--15--|
--------------12--11----------|--------------------------|
------14--12------------------|--------------------------|
------------------------------|--------------------------|
------------------------------|--------------------------|


                                           
------------------------------------------|
------------------------12--12------------|
--12h14h12h11-12----14------------14---12-|
------------------------------------------|
------------------------------------------|
------------------------------------------|


                                                            
--------------------------------------|--------------------|
--------------------------------------|--------------------|
--11--------11--12--12--14-12-11------|--7----7------------|
------14---------------------------14-|--------------------|
--------------------------------------|--------------------|
--------------------------------------|--------------------|


                                                          
-----------------------------|---------------------------|
-----------------------------|--15-----------------------|
--11----------12-11-9-11-----|---------------------------|
-------------------------12--|----------------15---17-15-|
-----------------------------|---------------------------|
-----------------------------|---------------------------|


                                                                      
---------------------------------|-----------------------------------|
--------17~-----15---------------|-------------15--------------------|
--------------------17-19h17h16--|--17------------17-16--14----------|
--14-----------------------------|--------------------------17-16-14-|
---------------------------------|-----------------------------------|
---------------------------------|-----------------------------------|


                                                      
----------------------------|------------------------|
----------------------------|----12--13--------12----|
------------------12--14----|------------------------|
--13--14--16----------------|------------------------|
----------------------------|------------------------|
----------------------------|------------------------|


                                                               
----------------------------------|---------------------------|
----------------------------------|---------------------------|
--14--12--------------12-14-12----|--11h--12h11---------------|
----------16--14--16--------------|-------------14------------|
----------------------------------|---------------------------|
----------------------------------|---------------------------|


                                                         
-------------------------------|------------------------|
-------------------------------|--17------------15--14--|
--12----------16--14h16h14-----|------------------------|
---------------------------17--|------------------------|
-------------------------------|------------------------|
-------------------------------|------------------------|


                                                                  
--------------------------------|--------------------------------|
----------15--------------------|--------------------------------|
--16--14------------------11-12-|--11~-----11h12h11--------------|
--------------12--14~-----------|-------------------14-12--------|
--------------------------------|--------------------------------|
--------------------------------|--------------------------------|


                                                         
--10------10-12-13-12--------|--12------14-15-14--------|
-----------------------------|--------------------------|
-----------------------------|--------------------------|
-----------------------------|--------------------------|
-----------------------------|--------------------------|
-----------------------------|--------------------------|


                                                      
--14------16-17-16--------|--20--16--17--------------|
--------------------------|--------------------17----|
--------------------------|--------------------------|
--------------------------|--------------------------|
--------------------------|--------------------------|
--------------------------|--------------------------|


                                                                
----------------------17--20--|--20--17--19~-------19--20--22--|
--------15----15--19----------|--------------------------------|
--19--------------------------|--------------------------------|
------------------------------|--------------------------------|
------------------------------|--------------------------------|
------------------------------|--------------------------------|


                                                        
----------------19--22--24b-|--24b-22--24~-------------|
--20------20----------------|--------------------20----|
----------------------------|--------------------------|
----------------------------|--------------------------|
----------------------------|--------------------------|
----------------------------|--------------------------|


                                                                
----------20~-------------|----------------20--20--19------17--|
--19--22------------17----|--------19--22--------------17------|
--------------------------|--19--------------------------------|
--------------------------|------------------------------------|
--------------------------|------------------------------------|
--------------------------|------------------------------------|


                                                                   
--15--------14----14--15--|--15----------------|------------------|
--------------------------|--------------------|------------------|
--------------------------|--------------------|------------------|
--------------------------|--------------------|------------------|
--------------------------|--------------------|------------------|
--------------------------|--------------------|------------------|


                                       
------------------|------------------||
------------------|------------------||
------------------|------------------||
------------------|------------------||
------------------|------------------||
------------------|------------------||

Guitar 2



                                                            
D#||------|------|------|------|-------------------10------|
A#||------|------|------|------|---------------------------|
F#||------|------|------|------|------10--9--10--------10--|
C#||------|------|------|------|---------------------------|
G#||------|------|------|------|---------------------------|
D#||------|------|------|------|---------------------------|


                                                                         
-------------------------|-----------------7--8-----|-------------------|
-----12--9---------------|------10--9--10--------8--|--7----------------|
--9---------10--9--------|--------------------------|-------------------|
-------------------------|--------------------------|-------------------|
-------------------------|--------------------------|-------------------|
-------------------------|--------------------------|-------------------|


                                                                 
--------------------|--------------------|----------------------|
--8--------7--------|--------------------|----------------------|
--------------------|--9-----------------|--7---------6b---6----|
--------------------|-----------7--------|-------9--------------|
--------------------|--------------------|----------------------|
--------------------|--------------------|----------------------|


                                                                            
-------------------|------|------|------|------|------|------|------|------|
-------------------|------|------|------|------|------|------|------|------|
--7----------------|------|------|------|------|------|------|------|------|
-------------------|------|------|------|------|------|------|------|------|
-------------------|------|------|------|------|------|------|------|------|
-------------------|------|------|------|------|------|------|------|------|


                                                                             
------|------|------|------|------|------|------|------|------|------|------|
------|------|------|------|------|------|------|------|------|------|------|
------|------|------|------|------|------|------|------|------|------|------|
------|------|------|------|------|------|------|------|------|------|------|
------|------|------|------|------|------|------|------|------|------|------|
------|------|------|------|------|------|------|------|------|------|------|


                                                         
------|------|------|------|------|------|------|------||
------|------|------|------|------|------|------|------||
------|------|------|------|------|------|------|------||
------|------|------|------|------|------|------|------||
------|------|------|------|------|------|------|------||
------|------|------|------|------|------|------|------||





Comments


Popular Yngwie Malmsteen tabs & chords
Dark Ages Bass Tabs
Save Our Love Bass Tabs
Bad Blood Tabs
Carry On Wayward Son Tabs
Ces't La Vie Tabs
Disciples Of Hell Tabs
Evil Eye 1 Tabs
Hanagr 18 Area Tabs
Making Love Tabs
Vengeance Tabs


Song lyrics



↑ Back to top | Tablatures and chords are parodies/interpretations of the original songs. You may use it for private study, scholarship, research or language learning purposes only
© 2014 AZChords.com Contact us | Privacy policy | DMCA | Add/correct tabs | Request tabs | Top 50 tabs