>
 >
 >
No Opportunity Necessary No Experience Needed

No Opportunity Necessary No Experience Needed Guitar Tabs

Yes - No Opportunity Necessary No Experience Needed chords, tabs, tablatures, lyrics

Guitar lessons | Add/correct | Request | Top 50 tabs Artists:  A B C D E F G H I J K L M N O P Q R S T U V W X Y Z 0-9

No Opportunity Necessary No Experience Needed Guitar Tabs – Yes

CD, Sheet music, Poster

Do you like No Opportunity Necessary No Experience Needed? Share with your friends now
Tabs
----------------------------------------------------------------------------           
No Opportunity Necessary, No Experience Needed - Yes
----------------------------------------------------------------------------
Can't believe no one's posted this, one of the busiest early Yes tunes!  
I left the syncopated rhythms basic (gotta listen to it) and gave you the
notes, which as far as I can tell are pretty damn on.  Good luck, it's a
blast once you have it down!

Tuning: 1/2 Step Down

  0:22
G|--------------------------------------|
D|--------------------------------------|
A|--------------------------------------|  X 3
E|-7-7-7-----7-7-7---7-7-7---7-7-7------|

G|--------9-7----11-9-----12-11-9--------------------------|
D|-9-7--------9-------11-----------9-9--9-7----------------|
A|-----9------------------------------------9--5-----------|
E|----------------------------------------------------2----|

G|---------------------------------------------------------|
D|---------------------------------------------------------|
A|-2--2--2--2--2--2--2--2--2--2--2--2--2--4--4--5-6--------|
E|---------------------------------------------------------|

  0:53 (1st verse)
G|-------------------------|        |-------------|
D|-------------------------|        |-------------|
A|--7-------------4--6--7--|  X7    |--7---6------|
E|----0--4--5--7-----------|        |-------------|

G|----------6---6---6--4------|----------------------------|
D|------6-----------------6---|----------------------------|
A|--4-------------------------|--4---2-------2-----2---4---|
E|----------------------------|----------4------4----------|

G|-------------------------|        |----------------------|
D|-------------------------|        |--------6-6-6-7-8-----|
A|--7-------------4--6--7--|  X3    |--7-7-7---------------|
E|----0--4--5--7-----------|        |----------------------|

  1:19
G|------9-8---9-8---9-8---9-8---9-8---9-8---9-8------------|
D|-9-9------9-----9-----9-----9-----9-----9-----9----------|
A|---------------------------------------------------------|
E|---------------------------------------------------------|

G|---------------------------------------------------------|
D|-9-------------9------------9-9-9-9-9--------------------|
A|---6--7--9--------6-7-9---------------9-9-\--------------|
E|------------7------------7-------------------------------|

  1:29 (chorus)
G|---------------------------------------------------------|
D|--------------------------------------11-----------------|
A|---------0-----0-4---------------------------------------|
E|-2---4-------------0-2---4---5--7--9---------------------|

G|---------11-9----13-11----14-13-11-----------------------|
D|-11-9---------11-------13----------11-11--11-9-----------|
A|------11---------------------------------------11--------|
E|---------------------------------------------------------|

G|---------------9-7---------------------------------------|
D|----(throw in)-----9--------------------9--7-------------|
A|-7--(octaves)------------(more octaves)-------9----------|
E|----------------------7----------------------------------|

  1:56 (2nd verse)
G|-------------------------|        |-------------|
D|-------------------------|        |-------------|
A|--7-------------4--6--7--|  X7    |--7---6------|
E|----0--4--5--7-----------|        |-------------|

G|----------6---6---6--4------|----------------------------|
D|------6-----------------6---|----------------------------|
A|--4-------------------------|--4---2-------2-----2---4---|
E|----------------------------|----------4------4----------|

G|-------------------------|        |----------------------|
D|-------------------------|        |----------------------|
A|--7-------------4--6--7--|  X4    |--7-7-----------------|
E|----0--4--5--7-----------|        |----------0-----------|

  2:25 (solo)
G|-------------------------|---------------------19-19-19--|
D|-------------------------|----4-5--4--2--5--7------------|
A|-5--5--5--5--5--5--3--0--|-5-----------------------------|
E|-------------------------|-------------------------------|

G|---------------------------------|-----------------------|
D|---------------------------------|----4-5--4--2--5--7----|
A|-5---2-3--5---2-3--5---2-5--3--0-|-5-------------------5-|
E|---3--------3--------3-----------|-----------------------|

  2:56
G|--------------------------------------|
D|--------------------------------------|
A|-5-5-5-----5-5-5---5-5-5---5-5-5------|  X 3
E|--------------------------------------|

G|----------12-10----14-12----15-14-12----------------------------|
D|-12-10----------12-------14----------12-12--12-10---------------|
A|-------12-----------------------------------------12----8---0---|
E|----------------------------------------------------------------|

G|---------------------------------------------------------|
D|---------------------------------------------------------|
A|-2--2--2--2--2--2--2--2--2--2--2--2--2--4--4--5-6--------|
E|---------------------------------------------------------|

  3:27 (3rd verse)
G|-------------------------|        |-------------|
D|-------------------------|        |-------------|
A|--7-------------4--6--7--|  X7    |--7---6------|
E|----0--4--5--7-----------|        |-------------|

G|----------6---6---6--4------|----------------------------|
D|------6-----------------6---|----------------------------|
A|--4-------------------------|--4---2-------2-----2---4---|
E|----------------------------|----------4------4----------|

G|-------------------------|        |----------------------|
D|-------------------------|        |--------6-6-6-7-8-----|
A|--7-------------4--6--7--|  X3    |--7-7-7---------------|
E|----0--4--5--7-----------|        |----------------------|

G|------9-8---9-8---9-8---9-8---9-8---9-8---9-8------------|
D|-9-9------9-----9-----9-----9-----9-----9-----9----------|
A|---------------------------------------------------------|
E|---------------------------------------------------------|

G|---------------------------------------------------------|
D|-9-------------9------------9-9-9-9-9--------------------|
A|---6--7--9--------6-7-9---------------9-9-\--------------|
E|------------7------------7-------------------------------|

  4:02 (chorus)
G|---------------------------------------------------------|
D|--------------------------------------11-----------------|
A|---------0-----0-4---------------------------------------|
E|-2---4-------------0-2---4---5--7--9---------------------|

G|---------11-9----13-11----14-13-11-----------------------|
D|-11-9---------11-------13----------11-11--11-9-----------|
A|------11---------------------------------------11--------|
E|---------------------------------------------------------|

G|---------------------------------------------------------|
D|--------------------------------------11-----------------|
A|-9-------0-----0-4---------------------------------------|
E|-----4-------------0-2---4---5--7--9---------------------|

G|----------------------------------------|
D|-------------------------------9--10----|
A|---------------------------11-----------|
E|-9-\-------9-\-----9-\------------------|

G|---------11-9----13-11----14-13-11-----------------------|
D|-11-9---------11-------13----------11-11--11-9-----------|
A|------11---------------------------------------11--7-7---|
E|---------------------------------------------------------|





Comments


Popular Yes tabs & chords
Heart Of The Sunrise 1 Bass Tabs
Starship Trooper 1 Bass Tabs
Tempest Fugit Bass Tabs
Time And A Word Chords
Ancient Tabs
Heart Of The Sunrise Intro Tabs
I've Seen All Good People 1 Tabs
Roundabout 1 Tabs
Yours Is No Digrace Tabs
Survival Ukulele


Song lyrics



↑ Back to top | Tablatures and chords are parodies/interpretations of the original songs. You may use it for private study, scholarship, research or language learning purposes only
© 2014 AZChords.com Contact us | Privacy policy | DMCA | Add/correct tabs | Request tabs | Top 50 tabs