» » »

Yes, Da Schmalle Bass tabs (ver.1)

Artists:  A B C D E F G H I J K L M N O P Q R S T U V W X Y Z # 

Da Schmalle Bass tabs (ver.1)

Yes Tabs
Rating:
0/5 (0 votes)
Da Schmalle lessons Tabs too difficult? Try these video lessons and learn fast
                -------------------------------------------------------------------------------
			     DA SCHMALLE - SCHMALLE AND DA BRUMSCH
-------------------------------------------------------------------------------


Tuning:EADG

intro/verse:
G|-------------------------------|
D|----7---7---7---7--------------|
A|-------------------------------|x8
E|--0---0---0---0---3-3--3--2-2--|

bridge:
G|-------------------------------------|
D|----7---5---7---5---7---5---7-7-7-7--|
A|-------------------------------------|
E|--0---0---0---0---0---0---0----------|

chorus:
G|----9---9---7---7-----------------|
D|----------------------------------|
A|--7---7---5---5---3-3-3-2--2-2-0--|x2
E|----------------------------------|

G|----9---9---12--12----------------|
D|----------------------------------|
A|--7---7---10--10--12-10-9-7-77-0--|x2
E|----------------------------------|

G|----9---9---7---7-------------------------|
D|------------------------------------------|
A|--7---7---5---5---3-3-3-2--2-2-0-2-2-2-2--|
E|------------------------------------------|

-verse x8
-bridge

special part:
G|--------------------------------------------|
D|--------------------------------------------|
A|--12-12-12/---0-12/---0-12-12-12/---0-12/---|x4
E|--------------------------------------------|

-verse x8

outro:
G|-------------------|
D|-------------------|
A|-------------------|
E|-2-2-2-2-0---------|


| /  slide up
| \  slide down
| h  hammer-on
| p  pull-off
| ~  vibrato
| +  harmonic
| x  Mute note
===============================================================================
            

comments powered by Disqus
↑ Back to top | Yes Bass for Da Schmalle. Lyrics for acoustic guitar and electric guitar. Tablatures and chords are parodies/interpretations of the original songs. You may use it for private study, scholarship, research or language learning purposes only