» » »

2080 Bass tabs (ver.1)

Artists:  A B C D E F G H I J K L M N O P Q R S T U V W X Y Z # 

2080 Bass tabs (ver.1)

Yeasayer
Rating:
4/5 (5 votes)
Tabs too difficult? Try these video lessons and learn fast.
                -------------------------------------------------------------------------------
-------------------------------------------------------------------------------


Tuning: Standard

Thanks must go to Jools Holland for breaking another top band in the UK!
This funky tab is pretty much on the money but you might want to put some parts at 
octaves.
It's about time you had a Yeasayer tab! They can be found at:
If this tab isnt good enough to submit, please, please tell me why!!!!!


INTRO:
G|-----------------|
D|-0-2-4-4-2-0-----|
A|-------------2-2-|
E|-----------------|

VERSE:
G|-----2-4-----2-2-|-2-----------4-4-|
D|-2-4-----2-4-----|----2/4--2h4-----|
A|-----------------|-----------------|
E|-----------------|-----------------|

CHORUS: (when played the last time, play the intro instead of the last bar)
G|-7-7-6-----------|---------------|---------------------|---------------------|
D|-------9-7-------|--------4------|---------------------|---------------------|
A|-----------9-7-5-|----5-5----5---|-------4------4----2-|---0-2-2-0-2-2-0-2---|
E|-----------------|-------------5-|---5-5----5-5----5---|---------------------|

INTRO
VERSE
CHORUS (when played the last time, play the intro instead of the last bar)

BRIDGE:
G|-4-----2-----------------------4-----------4-----|
D|-------------2-----0-----2--------4--2--------4--|
A|----------------------0--------------------------|
E|-------------------------------------------------|

CHORUS (when played the last time, play the intro instead of the last bar)
BRIDGE

| /  slide up
| h  hammer-on
===============================================================================
            
Tabs too difficult? Try these video lessons and learn fast.


comments powered by Disqus
↑ Back to top | Tablatures and chords are parodies/interpretations of the original songs. You may use it for private study, scholarship, research or language learning purposes only