» » »

2080 Tabs (ver.1)

Artists:  A B C D E F G H I J K L M N O P Q R S T U V W X Y Z # 

2080 Tabs (ver.1)

Yeasayer
Rating:
5/5 (2 votes)
Tabs too difficult? Try these video lessons and learn fast.
                

Tuning: Standard EADGBe

*****************************************************************

Electric guitar riff for intro/verses:

e|---------------2---------------------------------|
B|---3-----3---3---3---3-----3-----3-----------2---|
G|-4---4-4---4-------4---4-2---2-4---4---2---2---2-|
D|-------------------------------------2---2-------|
A|-------------------------------------------------|
E|-------------------------------------------------|

Electric guitar riff over chorus ("It's a new year...):


   Bm                      D
e|---------2-----------2-----------------2-------2--|
B|---3---3---3---3---3---3---3-----3---3---3---3----|
G|-4---4-------4---4-------2---2-4---4-------2------|
D|--------------------------------------------------|
A|--------------------------------------------------|
E|--------------------------------------------------|

   A                       Bm
  ---------------2-----------------2----------------|
  ---2-----3---3---3---3-----3---3---3---3-----2----|
  -2---2-4---4-------4---4-4---4-------4---4-2---2--|
  --------------------------------------------------|
  --------------------------------------------------|
  --------------------------------------------------|


Other guitar heard during the chorus halfway through the song:

e|-10-10-9-7---------------------|
B|-----------10-7----------------|
G|----------------9-7------------|
D|-------------------------------|
A|-------------------------------|
E|-------------------------------|


*****************************************************************


("Yeah yeah!")-section acoustic chords (Capo 9th fret):


    Bm    A     Em   F#m
e|--1-----0-----3-----0-----|
B|--3-----1-----3-----1-----|
G|--2-----0-----3-----2-----|
D|--0-----2-----5-----2-----|
A|--------3-----5-----0-----|
E|--------------3-----------|

Bm                       A
    Yeah Yeah we can all grab at the chance and be handsome farmers!

Em                       Bm                          A
    Yeah you can have 21 sons and be blood when they marry my daughters!

Bm                                   Bm                     F#m
    And the pain that we left at the station will stay in a jar behind us!

Em                              Bm                     F#m
    We can pickle the pain into blue ribbon winners at county contests!


=========================================================================
            
Tabs too difficult? Try these video lessons and learn fast.


comments powered by Disqus
↑ Back to top | Tablatures and chords are parodies/interpretations of the original songs. You may use it for private study, scholarship, research or language learning purposes only