» » »

Yashin, Stand Up Tabs (ver.2)

Artists:  A B C D E F G H I J K L M N O P Q R S T U V W X Y Z # 

Stand Up Tabs (ver.2)

Yashin Tabs
 Rating:
4/5 (4 votes)
Stand Up lessons Tabs too difficult? Try these video lessons and learn fast
1
                
Band: Yashin
Tuning: Drop C


d----5-4-------5-4------5-4-------5-4------5-4-5-4-|
a--5-----5---5-----5--5-----5---5-----5--5---------|
f--------------------------------------------------|
C--------------------------------------------------|
G--------------------------------------------------|
C--------------------------------------------------|


d-----------------------------------|
a-----------------------------------|
f-----------------------------------|
C--4---------7---------0---------2--|
G--4---------7---------0---------2--|
C--4---------7---------0---------2--|


d-------------------------|
a-------------------------|
f-------------------------|
C--0------2------4------2-|
G--0------2------4------2-|
C--0------2------4------2-|


d-------------------------|
a-------------------------|
f-------------------------|
C--0-----2-----4--------7-|
G--0-----2-----4--------7-|
C--0-----2-----4--------7-|


d--------------------------------------|
a--------------------------------------|
f--------------------------------------|
C--4444--4444--2--7777-2-7777--2-7-6-2-|
G--4444--4444--2--7777-2-7777--2-7-6-2-|
C--4444--4444--2--7777-2-7777--2-7-6-2-|


d----------------------------|
a----------------------------|
f----------------------------|
C----------------------------|
G----------------------------|
C---0------2-------4-------2-|


d----4---5---4--|
a--5------------|
f---------------|
C---------------|
G---------------|
C---------------|


d-----------|
a-----------|
f--14-13--9-|
C--14-13--9-|
G--12-11--7-|
C-----------|


d-----------12-------------12-------------12------12------12-----|
a---9-10-9----10910--9-10-9--10910------------10-9----10-9---10--|
f----------------------------------------------------------------|
C----------------------------------------------------------------|
G----------------------------------------------------------------|
C----------------------------------------------------------------|


d----------------------------------|
a----------------------------------|
f--14-13-11--911--13--14-1311--9-6-|
C----------------------------------|
G--12-11-9---7-9--11--12-11-9--7-4-|
C----------------------------------|



d------------------------------------|
a------------------------------------|
f--14-13-11--16-14-13--14-1311--9--6-|
C------------------------------------|
G--12-11-9---14-12-11--12-11-9--7--4-|
C------------------------------------|


d------------------------------------------|
a------------------------------------------|
f---14-14/13--20/13---20/13----20--16---13-|
C------------------------------------------|
G---12-12/11--18/11---18/11----18--14---11-|
C------------------------------------------|



d-----------------------------------|
a-----------------------------------|
f---14--11---9----------------------|
C------------------------7---6---2--|
G---12--13---7-----------7---6---2--|
C------------------------7---6---2--|
            
Submit corrections

comments powered by Disqus
↑ Back to top | Yashin Tabs for Stand Up. Lyrics for acoustic guitar and electric guitar. 1 Tablatures and chords are parodies/interpretations of the original songs. You may use it for private study, scholarship, research or language learning purposes only